  0
SECTION
  2
HEADER
  9
$ACADVER
  1
AC1015
  9
$ACADMAINTVER
 70
     6
  9
$DWGCODEPAGE
  3
ANSI_1254
  9
$INSBASE
 10
0.0
 20
0.0
 30
0.0
  9
$EXTMIN
 10
0.0
 20
0.0
 30
0.0
  9
$EXTMAX
 10
279.4
 20
215.9
 30
0.0
  9
$LIMMIN
 10
0.0
 20
0.0
  9
$LIMMAX
 10
279.4
 20
215.9
  9
$ORTHOMODE
 70
     0
  9
$REGENMODE
 70
     1
  9
$FILLMODE
 70
     1
  9
$QTEXTMODE
 70
     0
  9
$MIRRTEXT
 70
     1
  9
$LTSCALE
 40
1.0
  9
$ATTMODE
 70
     1
  9
$TEXTSIZE
 40
3.5
  9
$TRACEWID
 40
1.0
  9
$TEXTSTYLE
  7
Standard
  9
$CLAYER
  8
0
  9
$CELTYPE
  6
ByLayer
  9
$CECOLOR
 62
   256
  9
$CELTSCALE
 40
1.0
  9
$DISPSILH
 70
     0
  9
$DIMSCALE
 40
1.0
  9
$DIMASZ
 40
3.5
  9
$DIMEXO
 40
1.0
  9
$DIMDLI
 40
3.75
  9
$DIMRND
 40
0.0
  9
$DIMDLE
 40
0.0
  9
$DIMEXE
 40
1.0
  9
$DIMTP
 40
0.0
  9
$DIMTM
 40
0.0
  9
$DIMTXT
 40
2.8222222222
  9
$DIMCEN
 40
2.5
  9
$DIMTSZ
 40
0.0
  9
$DIMTOL
 70
     0
  9
$DIMLIM
 70
     0
  9
$DIMTIH
 70
     1
  9
$DIMTOH
 70
     1
  9
$DIMSE1
 70
     0
  9
$DIMSE2
 70
     0
  9
$DIMTAD
 70
     1
  9
$DIMZIN
 70
     0
  9
$DIMBLK
  1

  9
$DIMASO
 70
     1
  9
$DIMSHO
 70
     1
  9
$DIMPOST
  1

  9
$DIMAPOST
  1

  9
$DIMALT
 70
     0
  9
$DIMALTD
 70
     3
  9
$DIMALTF
 40
0.0393700787
  9
$DIMLFAC
 40
1.0
  9
$DIMTOFL
 70
     1
  9
$DIMTVP
 40
0.0
  9
$DIMTIX
 70
     0
  9
$DIMSOXD
 70
     0
  9
$DIMSAH
 70
     0
  9
$DIMBLK1
  1

  9
$DIMBLK2
  1

  9
$DIMSTYLE
  2
ISO-25
  9
$DIMCLRD
 70
     0
  9
$DIMCLRE
 70
     0
  9
$DIMCLRT
 70
     0
  9
$DIMTFAC
 40
1.0
  9
$DIMGAP
 40
1.524
  9
$DIMJUST
 70
     0
  9
$DIMSD1
 70
     0
  9
$DIMSD2
 70
     0
  9
$DIMTOLJ
 70
     0
  9
$DIMTZIN
 70
     0
  9
$DIMALTZ
 70
     0
  9
$DIMALTTZ
 70
     0
  9
$DIMUPT
 70
     0
  9
$DIMDEC
 70
     2
  9
$DIMTDEC
 70
     2
  9
$DIMALTU
 70
     2
  9
$DIMALTTD
 70
     3
  9
$DIMTXSTY
  7
Standard
  9
$DIMAUNIT
 70
     0
  9
$DIMADEC
 70
     2
  9
$DIMALTRND
 40
0.0
  9
$DIMAZIN
 70
     0
  9
$DIMDSEP
 70
    44
  9
$DIMATFIT
 70
     3
  9
$DIMFRAC
 70
     0
  9
$DIMLDRBLK
  1

  9
$DIMLUNIT
 70
     2
  9
$DIMLWD
 70
    -2
  9
$DIMLWE
 70
    -2
  9
$DIMTMOVE
 70
     0
  9
$LUNITS
 70
     2
  9
$LUPREC
 70
     2
  9
$SKETCHINC
 40
1.0
  9
$FILLETRAD
 40
10.0
  9
$AUNITS
 70
     0
  9
$AUPREC
 70
     2
  9
$MENU
  1
.
  9
$ELEVATION
 40
0.0
  9
$PELEVATION
 40
0.0
  9
$THICKNESS
 40
0.0
  9
$LIMCHECK
 70
     0
  9
$CHAMFERA
 40
0.0
  9
$CHAMFERB
 40
0.0
  9
$CHAMFERC
 40
0.0
  9
$CHAMFERD
 40
0.0
  9
$SKPOLY
 70
     0
  9
$TDCREATE
 40
2460087.497612824
  9
$TDUCREATE
 40
2460087.372612824
  9
$TDUPDATE
 40
2460087.497613067
  9
$TDUUPDATE
 40
2460087.372613067
  9
$TDINDWG
 40
0.0000000116
  9
$TDUSRTIMER
 40
0.0000000116
  9
$USRTIMER
 70
     1
  9
$ANGBASE
 50
0.0
  9
$ANGDIR
 70
     0
  9
$PDMODE
 70
     0
  9
$PDSIZE
 40
-1.0
  9
$PLINEWID
 40
0.0
  9
$SPLFRAME
 70
     0
  9
$SPLINETYPE
 70
     6
  9
$SPLINESEGS
 70
     8
  9
$HANDSEED
  5
12C
  9
$SURFTAB1
 70
     6
  9
$SURFTAB2
 70
     6
  9
$SURFTYPE
 70
     6
  9
$SURFU
 70
     6
  9
$SURFV
 70
     6
  9
$UCSBASE
  2

  9
$UCSNAME
  2

  9
$UCSORG
 10
0.0
 20
0.0
 30
0.0
  9
$UCSXDIR
 10
1.0
 20
0.0
 30
0.0
  9
$UCSYDIR
 10
0.0
 20
1.0
 30
0.0
  9
$UCSORTHOREF
  2

  9
$UCSORTHOVIEW
 70
     0
  9
$UCSORGTOP
 10
0.0
 20
0.0
 30
0.0
  9
$UCSORGBOTTOM
 10
0.0
 20
0.0
 30
0.0
  9
$UCSORGLEFT
 10
0.0
 20
0.0
 30
0.0
  9
$UCSORGRIGHT
 10
0.0
 20
0.0
 30
0.0
  9
$UCSORGFRONT
 10
0.0
 20
0.0
 30
0.0
  9
$UCSORGBACK
 10
0.0
 20
0.0
 30
0.0
  9
$PUCSBASE
  2

  9
$PUCSNAME
  2

  9
$PUCSORG
 10
0.0
 20
0.0
 30
0.0
  9
$PUCSXDIR
 10
1.0
 20
0.0
 30
0.0
  9
$PUCSYDIR
 10
0.0
 20
1.0
 30
0.0
  9
$PUCSORTHOREF
  2

  9
$PUCSORTHOVIEW
 70
     0
  9
$PUCSORGTOP
 10
0.0
 20
0.0
 30
0.0
  9
$PUCSORGBOTTOM
 10
0.0
 20
0.0
 30
0.0
  9
$PUCSORGLEFT
 10
0.0
 20
0.0
 30
0.0
  9
$PUCSORGRIGHT
 10
0.0
 20
0.0
 30
0.0
  9
$PUCSORGFRONT
 10
0.0
 20
0.0
 30
0.0
  9
$PUCSORGBACK
 10
0.0
 20
0.0
 30
0.0
  9
$USERI1
 70
     0
  9
$USERI2
 70
     0
  9
$USERI3
 70
     0
  9
$USERI4
 70
     0
  9
$USERI5
 70
     0
  9
$USERR1
 40
0.0
  9
$USERR2
 40
0.0
  9
$USERR3
 40
0.0
  9
$USERR4
 40
0.0
  9
$USERR5
 40
0.0
  9
$WORLDVIEW
 70
     1
  9
$SHADEDGE
 70
     3
  9
$SHADEDIF
 70
    70
  9
$TILEMODE
 70
     1
  9
$MAXACTVP
 70
    64
  9
$PINSBASE
 10
0.0
 20
0.0
 30
0.0
  9
$PLIMCHECK
 70
     0
  9
$PEXTMIN
 10
1.0000000000E+20
 20
1.0000000000E+20
 30
1.0000000000E+20
  9
$PEXTMAX
 10
-1.0000000000E+20
 20
-1.0000000000E+20
 30
-1.0000000000E+20
  9
$PLIMMIN
 10
0.0
 20
0.0
  9
$PLIMMAX
 10
420.0
 20
297.0
  9
$UNITMODE
 70
     0
  9
$VISRETAIN
 70
     1
  9
$PLINEGEN
 70
     0
  9
$PSLTSCALE
 70
     1
  9
$TREEDEPTH
 70
  3020
  9
$CMLSTYLE
  2
Standard
  9
$CMLJUST
 70
     0
  9
$CMLSCALE
 40
20.0
  9
$PROXYGRAPHICS
 70
     1
  9
$MEASUREMENT
 70
     1
  9
$CELWEIGHT
370
    -1
  9
$ENDCAPS
280
     0
  9
$JOINSTYLE
280
     0
  9
$LWDISPLAY
290
     1
  9
$INSUNITS
 70
     4
  9
$HYPERLINKBASE
  1

  9
$STYLESHEET
  1

  9
$XEDIT
290
     1
  9
$CEPSNTYPE
380
     0
  9
$PSTYLEMODE
290
     1
  9
$FINGERPRINTGUID
  2
{a96a86f4-5952-4e81-9f38-b356222c26f5}
  9
$VERSIONGUID
  2
{FAEB1C32-E019-11D5-929B-00C0DF256EC4}
  9
$EXTNAMES
290
     1
  9
$PSVPSCALE
 40
0.0
  9
$OLESTARTUP
290
     0
  0
ENDSEC
  0
SECTION
  2
CLASSES
  0
CLASS
  1
ACDBDICTIONARYWDFLT
  2
AcDbDictionaryWithDefault
  3
ObjectDBX Classes
 90
        0
280
     0
281
     0
  0
CLASS
  1
VISUALSTYLE
  2
AcDbVisualStyle
  3
ObjectDBX Classes
 90
     4095
280
     0
281
     0
  0
CLASS
  1
MATERIAL
  2
AcDbMaterial
  3
ObjectDBX Classes
 90
     1153
280
     0
281
     0
  0
CLASS
  1
SCALE
  2
AcDbScale
  3
ObjectDBX Classes
 90
     1153
280
     0
281
     0
  0
CLASS
  1
TABLESTYLE
  2
AcDbTableStyle
  3
ObjectDBX Classes
 90
     4095
280
     0
281
     0
  0
CLASS
  1
MLEADERSTYLE
  2
AcDbMLeaderStyle
  3
ACDB_MLEADERSTYLE_CLASS
 90
     4095
280
     0
281
     0
  0
CLASS
  1
SUN
  2
AcDbSun
  3
SCENEOE
 90
     1153
280
     0
281
     0
  0
CLASS
  1
ACDBPLACEHOLDER
  2
AcDbPlaceHolder
  3
ObjectDBX Classes
 90
        0
280
     0
281
     0
  0
CLASS
  1
LAYOUT
  2
AcDbLayout
  3
ObjectDBX Classes
 90
        0
280
     0
281
     0
  0
ENDSEC
  0
SECTION
  2
TABLES
  0
TABLE
  2
VPORT
  5
8
330
0
100
AcDbSymbolTable
 70
     1
  0
VPORT
  5
29
330
8
100
AcDbSymbolTableRecord
100
AcDbViewportTableRecord
  2
*Active
 70
     0
 10
0.0
 20
0.0
 11
1.0
 21
1.0
 12
139.7
 22
107.95
 13
0.0
 23
0.0
 14
10.0
 24
10.0
 15
10.0
 25
10.0
 16
0.0
 26
0.0
 36
1.0
 17
0.0
 27
0.0
 37
0.0
 40
215.9
 41
1.2941176471
 42
50.0
 43
0.0
 44
0.0
 50
0.0
 51
0.0
 71
     0
 72
  2000
 73
     1
 74
     3
 75
     0
 76
     0
 77
     0
 78
     0
281
     0
 65
     1
110
0.0
120
0.0
130
0.0
111
1.0
121
0.0
131
0.0
112
0.0
122
1.0
132
0.0
 79
     0
146
0.0
  0
ENDTAB
  0
TABLE
  2
LTYPE
  5
5
330
0
100
AcDbSymbolTable
 70
     6
  0
LTYPE
  5
14
330
5
100
AcDbSymbolTableRecord
100
AcDbLinetypeTableRecord
  2
ByBlock
 70
     0
  3

 72
    65
 73
     0
 40
0.0
  0
LTYPE
  5
15
330
5
100
AcDbSymbolTableRecord
100
AcDbLinetypeTableRecord
  2
ByLayer
 70
     0
  3

 72
    65
 73
     0
 40
0.0
  0
LTYPE
  5
16
330
5
100
AcDbSymbolTableRecord
100
AcDbLinetypeTableRecord
  2
Continuous
 70
     0
  3
Solid line
 72
    65
 73
     0
 40
0.0
  0
LTYPE
  5
6E
330
5
100
AcDbSymbolTableRecord
100
AcDbLinetypeTableRecord
  2
HIDDEN
 70
     0
  3
Hidden __ __ __ __ __ __ __ __ __ __ __ __ __ __
 72
    65
 73
     2
 40
1.905
 49
1.27
 74
     0
 49
-0.635
 74
     0
  0
LTYPE
  5
6F
330
5
100
AcDbSymbolTableRecord
100
AcDbLinetypeTableRecord
  2
PHANTOM
 70
     0
  3
Phantom ______  __  __  ______  __  __  ______
 72
    65
 73
     6
 40
12.7
 49
6.35
 74
     0
 49
-1.27
 74
     0
 49
1.27
 74
     0
 49
-1.27
 74
     0
 49
1.27
 74
     0
 49
-1.27
 74
     0
  0
LTYPE
  5
70
330
5
100
AcDbSymbolTableRecord
100
AcDbLinetypeTableRecord
  2
CENTER
 70
     0
  3
Center ____ _ ____ _ ____ _ ____ _ ____ _ ____
 72
    65
 73
     4
 40
10.16
 49
6.35
 74
     0
 49
-1.27
 74
     0
 49
1.27
 74
     0
 49
-1.27
 74
     0
  0
LTYPE
  5
71
330
5
100
AcDbSymbolTableRecord
100
AcDbLinetypeTableRecord
  2
CENTERX2
 70
     0
  3
Center (2x) ________  __  ________  __  _____
 72
    65
 73
     4
 40
20.32
 49
12.7
 74
     0
 49
-2.54
 74
     0
 49
2.54
 74
     0
 49
-2.54
 74
     0
  0
LTYPE
  5
72
330
5
100
AcDbSymbolTableRecord
100
AcDbLinetypeTableRecord
  2
DOT2
 70
     0
  3
Dot (.5x) ........................................
 72
    65
 73
     2
 40
0.635
 49
0.0
 74
     0
 49
-0.635
 74
     0
  0
ENDTAB
  0
TABLE
  2
LAYER
  5
2
330
0
100
AcDbSymbolTable
 70
    17
  0
LAYER
  5
10
330
2
100
AcDbSymbolTableRecord
100
AcDbLayerTableRecord
  2
0
 70
     0
 62
     7
  6
Continuous
370
    -3
390
F
  0
LAYER
  5
73
330
2
100
AcDbSymbolTableRecord
100
AcDbLayerTableRecord
  2
FORMAT
 70
     0
 62
     7
  6
Continuous
370
    -3
390
F
  0
LAYER
  5
74
330
2
100
AcDbSymbolTableRecord
100
AcDbLayerTableRecord
  2
YARDIMCI_GEOMETRI
 70
     0
 62
    -6
  6
Continuous
290
     0
370
    -3
390
F
  0
LAYER
  5
75
330
2
100
AcDbSymbolTableRecord
100
AcDbLayerTableRecord
  2
SAYFA_CERCEVESI
 70
     0
 62
     7
  6
Continuous
370
    25
390
F
  0
LAYER
  5
76
330
2
100
AcDbSymbolTableRecord
100
AcDbLayerTableRecord
  2
ANTET
 70
     0
 62
     7
  6
Continuous
370
    -3
390
F
  0
LAYER
  5
77
330
2
100
AcDbSymbolTableRecord
100
AcDbLayerTableRecord
  2
OLCU
 70
     0
 62
   150
  6
Continuous
370
    -3
390
F
  0
LAYER
  5
78
330
2
100
AcDbSymbolTableRecord
100
AcDbLayerTableRecord
  2
METIN
 70
     0
 62
    96
  6
Continuous
370
    -3
390
F
  0
LAYER
  5
79
330
2
100
AcDbSymbolTableRecord
100
AcDbLayerTableRecord
  2
BALON
 70
     0
 62
     5
  6
Continuous
370
    -3
390
F
  0
LAYER
  5
7A
330
2
100
AcDbSymbolTableRecord
100
AcDbLayerTableRecord
  2
VURGU
 70
     0
 62
     7
  6
Continuous
370
    -3
390
F
  0
LAYER
  5
7B
330
2
100
AcDbSymbolTableRecord
100
AcDbLayerTableRecord
  2
SILIK
 70
     0
 62
     7
  6
Continuous
370
    -3
390
F
  0
LAYER
  5
7C
330
2
100
AcDbSymbolTableRecord
100
AcDbLayerTableRecord
  2
MODEL
 70
     0
 62
     7
  6
Continuous
370
    -3
390
F
  0
LAYER
  5
7D
330
2
100
AcDbSymbolTableRecord
100
AcDbLayerTableRecord
  2
DETAYLANDıRMA
 70
     0
 62
   190
  6
Continuous
370
    -3
390
F
  0
LAYER
  5
7E
330
2
100
AcDbSymbolTableRecord
100
AcDbLayerTableRecord
  2
TOLERANS
 70
     0
 62
   230
  6
Continuous
370
    -3
390
F
  0
LAYER
  5
7F
330
2
100
AcDbSymbolTableRecord
100
AcDbLayerTableRecord
  2
MERKEZ_CIZGILERI
 70
     0
 62
    30
  6
Continuous
370
    -3
390
F
  0
LAYER
  5
80
330
2
100
AcDbSymbolTableRecord
100
AcDbLayerTableRecord
  2
KESIT-DETAY_CIZGILERI
 70
     0
 62
     7
  6
Continuous
370
    -3
390
F
  0
LAYER
  5
81
330
2
100
AcDbSymbolTableRecord
100
AcDbLayerTableRecord
  2
\U+041E\U+0421\U+0415\U+0412\U+042B\U+0415
 70
     0
 62
     7
  6
Continuous
370
    -3
390
F
  0
LAYER
  5
82
330
2
100
AcDbSymbolTableRecord
100
AcDbLayerTableRecord
  2
\U+0412\U+041E\U+0414\U+042F\U+041D\U+042B\U+0415_\U+0417\U+041D\U+0410\U+041A\U+0418
 70
     0
 62
    11
  6
Continuous
370
    -3
390
F
  0
ENDTAB
  0
TABLE
  2
STYLE
  5
3
330
0
100
AcDbSymbolTable
 70
     1
  0
STYLE
  5
11
330
3
100
AcDbSymbolTableRecord
100
AcDbTextStyleTableRecord
  2
Standard
 70
     0
 40
0.0
 41
1.0
 50
0.0
 71
     0
 42
3.5
  3
txt
  4

  0
ENDTAB
  0
TABLE
  2
VIEW
  5
6
330
0
100
AcDbSymbolTable
 70
     0
  0
ENDTAB
  0
TABLE
  2
UCS
  5
7
330
0
100
AcDbSymbolTable
 70
     0
  0
ENDTAB
  0
TABLE
  2
APPID
  5
9
330
0
100
AcDbSymbolTable
 70
     1
  0
APPID
  5
12
330
9
100
AcDbSymbolTableRecord
100
AcDbRegAppTableRecord
  2
ACAD
 70
     0
  0
ENDTAB
  0
TABLE
  2
DIMSTYLE
  5
A
330
0
100
AcDbSymbolTable
 70
     1
100
AcDbDimStyleTable
  0
DIMSTYLE
105
27
330
A
100
AcDbSymbolTableRecord
100
AcDbDimStyleTableRecord
  2
ISO-25
 70
     0
 41
2.5
 42
0.625
 43
3.75
 44
1.25
 73
     0
 74
     0
 77
     1
 78
     8
140
2.5
141
2.5
143
0.0393700787
147
0.625
171
     3
172
     1
178
     0
271
     2
272
     2
274
     3
278
    44
283
     0
284
     8
340
11
  0
ENDTAB
  0
TABLE
  2
BLOCK_RECORD
  5
1
330
0
100
AcDbSymbolTable
 70
     3
  0
BLOCK_RECORD
  5
1F
330
1
100
AcDbSymbolTableRecord
100
AcDbBlockTableRecord
  2
*Model_Space
340
22
  0
BLOCK_RECORD
  5
1B
330
1
100
AcDbSymbolTableRecord
100
AcDbBlockTableRecord
  2
*Paper_Space
340
1E
  0
BLOCK_RECORD
  5
23
330
1
100
AcDbSymbolTableRecord
100
AcDbBlockTableRecord
  2
*Paper_Space0
340
26
  0
BLOCK_RECORD
  5
8C
330
1
100
AcDbSymbolTableRecord
100
AcDbBlockTableRecord
  2
SW_CENTERMARKSYMBOL_0
340
0
102
{BLKREFS
331
97
102
}
  0
BLOCK_RECORD
  5
108
330
1
100
AcDbSymbolTableRecord
100
AcDbBlockTableRecord
  2
SW_CENTERMARKSYMBOL_1
340
0
102
{BLKREFS
331
113
102
}
  0
ENDTAB
  0
ENDSEC
  0
SECTION
  2
BLOCKS
  0
BLOCK
  5
20
330
1F
100
AcDbEntity
  8
0
100
AcDbBlockBegin
  2
*Model_Space
 70
     0
 10
0.0
 20
0.0
 30
0.0
  3
*Model_Space
  1

  0
ENDBLK
  5
21
330
1F
100
AcDbEntity
  8
0
100
AcDbBlockEnd
  0
BLOCK
  5
1C
330
1B
100
AcDbEntity
 67
     1
  8
0
100
AcDbBlockBegin
  2
*Paper_Space
 70
     0
 10
0.0
 20
0.0
 30
0.0
  3
*Paper_Space
  1

  0
ENDBLK
  5
1D
330
1B
100
AcDbEntity
 67
     1
  8
0
100
AcDbBlockEnd
  0
BLOCK
  5
24
330
23
100
AcDbEntity
  8
0
100
AcDbBlockBegin
  2
*Paper_Space0
 70
     0
 10
0.0
 20
0.0
 30
0.0
  3
*Paper_Space0
  1

  0
ENDBLK
  5
25
330
23
100
AcDbEntity
  8
0
100
AcDbBlockEnd
  0
BLOCK
  5
8D
330
8C
100
AcDbEntity
  8
0
100
AcDbBlockBegin
  2
SW_CENTERMARKSYMBOL_0
 70
     0
 10
0.0
 20
0.0
 30
0.0
  3
SW_CENTERMARKSYMBOL_0
  1

  0
LINE
  5
8F
330
8C
100
AcDbEntity
  8
FORMAT
 62
     0
100
AcDbLine
 10
0.0
 20
0.0
 30
0.0
 11
0.0
 21
2.5
 31
0.0
  0
LINE
  5
90
330
8C
100
AcDbEntity
  8
FORMAT
 62
     0
100
AcDbLine
 10
0.0
 20
0.0
 30
0.0
 11
-2.5
 21
0.0
 31
0.0
  0
LINE
  5
91
330
8C
100
AcDbEntity
  8
FORMAT
 62
     0
100
AcDbLine
 10
0.0
 20
0.0
 30
0.0
 11
0.0
 21
-2.5
 31
0.0
  0
LINE
  5
92
330
8C
100
AcDbEntity
  8
FORMAT
 62
     0
100
AcDbLine
 10
0.0
 20
0.0
 30
0.0
 11
2.5
 21
0.0
 31
0.0
  0
LINE
  5
93
330
8C
100
AcDbEntity
  8
FORMAT
 62
     0
100
AcDbLine
 10
0.0
 20
5.0
 30
0.0
 11
0.0
 21
43.2
 31
0.0
  0
LINE
  5
94
330
8C
100
AcDbEntity
  8
FORMAT
 62
     0
100
AcDbLine
 10
-5.0
 20
0.0
 30
0.0
 11
-43.2
 21
0.0
 31
0.0
  0
LINE
  5
95
330
8C
100
AcDbEntity
  8
FORMAT
 62
     0
100
AcDbLine
 10
0.0
 20
-5.0
 30
0.0
 11
0.0
 21
-43.2
 31
0.0
  0
LINE
  5
96
330
8C
100
AcDbEntity
  8
FORMAT
 62
     0
100
AcDbLine
 10
5.0
 20
0.0
 30
0.0
 11
43.2
 21
0.0
 31
0.0
  0
ENDBLK
  5
8E
330
8C
100
AcDbEntity
  8
0
100
AcDbBlockEnd
  0
BLOCK
  5
109
330
108
100
AcDbEntity
  8
0
100
AcDbBlockBegin
  2
SW_CENTERMARKSYMBOL_1
 70
     0
 10
0.0
 20
0.0
 30
0.0
  3
SW_CENTERMARKSYMBOL_1
  1

  0
LINE
  5
10B
330
108
100
AcDbEntity
  8
FORMAT
 62
     0
100
AcDbLine
 10
0.0
 20
0.0
 30
0.0
 11
0.0
 21
2.5
 31
0.0
  0
LINE
  5
10C
330
108
100
AcDbEntity
  8
FORMAT
 62
     0
100
AcDbLine
 10
0.0
 20
0.0
 30
0.0
 11
-2.5
 21
0.0
 31
0.0
  0
LINE
  5
10D
330
108
100
AcDbEntity
  8
FORMAT
 62
     0
100
AcDbLine
 10
0.0
 20
0.0
 30
0.0
 11
0.0
 21
-2.5
 31
0.0
  0
LINE
  5
10E
330
108
100
AcDbEntity
  8
FORMAT
 62
     0
100
AcDbLine
 10
0.0
 20
0.0
 30
0.0
 11
2.5
 21
0.0
 31
0.0
  0
LINE
  5
10F
330
108
100
AcDbEntity
  8
FORMAT
 62
     0
100
AcDbLine
 10
0.0
 20
5.0
 30
0.0
 11
0.0
 21
7.25
 31
0.0
  0
LINE
  5
110
330
108
100
AcDbEntity
  8
FORMAT
 62
     0
100
AcDbLine
 10
-5.0
 20
0.0
 30
0.0
 11
-7.25
 21
0.0
 31
0.0
  0
LINE
  5
111
330
108
100
AcDbEntity
  8
FORMAT
 62
     0
100
AcDbLine
 10
0.0
 20
-5.0
 30
0.0
 11
0.0
 21
-7.25
 31
0.0
  0
LINE
  5
112
330
108
100
AcDbEntity
  8
FORMAT
 62
     0
100
AcDbLine
 10
5.0
 20
0.0
 30
0.0
 11
7.25
 21
0.0
 31
0.0
  0
ENDBLK
  5
10A
330
108
100
AcDbEntity
  8
0
100
AcDbBlockEnd
  0
ENDSEC
  0
SECTION
  2
ENTITIES
  0
LINE
  5
83
330
1F
100
AcDbEntity
  8
0
  6
Continuous
 62
     7
370
    25
100
AcDbLine
 10
144.6391659899
 20
177.5021495873
 30
0.0
 11
144.399234026
 21
191.2478425974
 31
0.0
  0
LINE
  5
84
330
1F
100
AcDbEntity
  8
0
  6
Continuous
 62
     7
370
    25
100
AcDbLine
 10
130.399234026
 20
191.2478425974
 30
0.0
 11
130.1592625982
 21
177.4998887088
 31
0.0
  0
LINE
  5
85
330
1F
100
AcDbEntity
  8
0
  6
Continuous
 62
     7
370
    25
100
AcDbLine
 10
130.1593255228
 20
97.3921915373
 30
0.0
 11
130.399234026
 21
83.6478425974
 31
0.0
  0
LINE
  5
86
330
1F
100
AcDbEntity
  8
0
  6
Continuous
 62
     7
370
    25
100
AcDbLine
 10
144.399234026
 20
83.6478425974
 30
0.0
 11
144.6391406841
 21
97.3920858349
 31
0.0
  0
CIRCLE
  5
87
330
1F
100
AcDbEntity
  8
0
  6
Continuous
 62
     7
370
    25
100
AcDbCircle
 10
137.399234026
 20
137.4478425974
 30
0.0
 40
31.90000000000001
  0
CIRCLE
  5
88
330
1F
100
AcDbEntity
  8
0
  6
Continuous
 62
     7
370
    25
100
AcDbCircle
 10
137.399234026
 20
137.4478425974
 30
0.0
 40
39.7
  0
CIRCLE
  5
89
330
1F
100
AcDbEntity
  8
0
  6
Continuous
 62
     7
370
    25
100
AcDbCircle
 10
137.399234026
 20
137.4478425974
 30
0.0
 40
40.70000000000002
  0
LINE
  5
8A
330
1F
100
AcDbEntity
  8
0
  6
Continuous
 62
     7
370
    25
100
AcDbLine
 10
130.399234026
 20
191.2478425974
 30
0.0
 11
144.399234026
 21
191.2478425974
 31
0.0
  0
LINE
  5
8B
330
1F
100
AcDbEntity
  8
0
  6
Continuous
 62
     7
370
    25
100
AcDbLine
 10
130.399234026
 20
83.6478425974
 30
0.0
 11
144.399234026
 21
83.6478425974
 31
0.0
  0
INSERT
  5
97
330
1F
100
AcDbEntity
  8
FORMAT
 62
     7
100
AcDbBlockReference
  2
SW_CENTERMARKSYMBOL_0
 10
137.399234026
 20
137.4478425974
 30
0.0
  0
LINE
  5
98
330
1F
100
AcDbEntity
  8
0
  6
Continuous
 62
     7
370
    25
100
AcDbLine
 10
288.6035275092
 20
96.7478425974
 30
0.0
 11
290.1394937662
 21
96.7478425974
 31
0.0
  0
LINE
  5
99
330
1F
100
AcDbEntity
  8
0
  6
Continuous
 62
     7
370
    25
100
AcDbLine
 10
230.7525819549
 20
96.7478425974
 30
0.0
 11
274.1664090322
 21
96.7478425974
 31
0.0
  0
LINE
  5
9A
330
1F
100
AcDbEntity
  8
0
  6
Continuous
 62
     7
370
    25
100
AcDbLine
 10
274.1671482526
 20
178.1478425974
 30
0.0
 11
230.7525819549
 21
178.1478425974
 31
0.0
  0
LINE
  5
9B
330
1F
100
AcDbEntity
  8
0
  6
Continuous
 62
     7
370
    25
100
AcDbLine
 10
290.1394937662
 20
178.1478425974
 30
0.0
 11
288.5784984706
 21
178.1478425974
 31
0.0
  0
ARC
  5
9C
330
1F
100
AcDbEntity
  8
0
  6
Continuous
 62
     7
370
    25
100
AcDbCircle
 10
290.1394937662
 20
97.7478425974
 30
0.0
 40
1.000000000000014
100
AcDbArc
 50
270.0
 51
0.0
  0
ARC
  5
9D
330
1F
100
AcDbEntity
  8
0
  6
Continuous
 62
     7
370
    25
100
AcDbCircle
 10
290.1394937662
 20
177.1478425974
 30
0.0
 40
1.000000000000028
100
AcDbArc
 50
0.0
 51
90.0
  0
ARC
  5
9E
330
1F
100
AcDbEntity
  8
0
  6
Continuous
 62
     7
370
    25
100
AcDbCircle
 10
230.7525819549
 20
99.7478425974
 30
0.0
 40
3.0
100
AcDbArc
 50
214.2417961379
 51
270.0
  0
ARC
  5
9F
330
1F
100
AcDbEntity
  8
0
  6
Continuous
 62
     7
370
    25
100
AcDbCircle
 10
230.7525819549
 20
175.1478425974
 30
0.0
 40
3.0
100
AcDbArc
 50
90.0
 51
145.7582038621
  0
ARC
  5
A0
330
1F
100
AcDbEntity
  8
0
  6
Continuous
 62
     7
370
    25
100
AcDbCircle
 10
286.1394937662
 20
137.4478425974
 30
0.0
 40
70.00000000000001
100
AcDbArc
 50
145.7582038621
 51
214.2417961379
  0
LINE
  5
A1
330
1F
100
AcDbEntity
  8
0
  6
Continuous
 62
     7
370
    25
100
AcDbLine
 10
288.6046566333
 20
178.1436606076
 30
0.0
 11
288.3759222858
 21
191.2478425974
 31
0.0
  0
LINE
  5
A2
330
1F
100
AcDbEntity
  8
0
  6
Continuous
 62
     7
370
    25
100
AcDbLine
 10
274.3759222858
 20
191.2478425974
 30
0.0
 11
274.1472053972
 21
178.1446608224
 31
0.0
  0
LINE
  5
A3
330
1F
100
AcDbEntity
  8
0
  6
Continuous
 62
     7
370
    25
100
AcDbLine
 10
274.1472074812
 20
96.7509049783
 30
0.0
 11
274.3759222858
 21
83.6478425974
 31
0.0
  0
LINE
  5
A4
330
1F
100
AcDbEntity
  8
0
  6
Continuous
 62
     7
370
    25
100
AcDbLine
 10
288.3759222858
 20
83.6478425974
 30
0.0
 11
288.6045865553
 21
96.748009823
 31
0.0
  0
SPLINE
  5
A5
330
1F
100
AcDbEntity
  8
0
  6
Continuous
 62
     7
370
    25
100
AcDbSpline
210
0.0
220
0.0
230
1.0
 70
     8
 71
     3
 72
    27
 73
    23
 74
     0
 42
0.00000001
 43
0.00000001
 40
0.0
 40
0.0
 40
0.0
 40
0.0
 40
0.0005486241424669
 40
0.0528329035813714
 40
0.1066364511456191
 40
0.1589132763654843
 40
0.2126701357226744
 40
0.2655937139641539
 40
0.3200339862837906
 40
0.3732273899724515
 40
0.4279987594246299
 40
0.4805532924829526
 40
0.5346709091876958
 40
0.586593221943156
 40
0.6400058907233581
 40
0.6922456360929513
 40
0.7459557016538966
 40
0.7989814639167919
 40
0.8535357180766799
 40
0.9066728290959306
 40
0.9613876934648378
 40
0.9999999999999999
 40
0.9999999999999999
 40
0.9999999999999999
 40
0.9999999999999999
 10
288.6035275092106
 20
96.74802946097414
 30
0.0
 10
288.6038793056587
 20
96.74796721815457
 30
0.0
 10
288.6377575592498
 20
96.74197318940114
 30
0.0
 10
288.520326382585
 20
96.76291049950186
 30
0.0
 10
288.2416936489068
 20
96.8115019364676
 30
0.0
 10
287.7446468937359
 20
96.89353650184438
 30
0.0
 10
287.0817164258238
 20
96.99357361492255
 30
0.0
 10
286.2481781082762
 20
97.10410223280343
 30
0.0
 10
285.2799220210785
 20
97.21094921091807
 30
0.0
 10
284.1876704621069
 20
97.30341630734027
 30
0.0
 10
283.0256881144181
 20
97.36885124726014
 30
0.0
 10
281.8091518802354
 20
97.40081313917362
 30
0.0
 10
280.6009182220171
 20
97.39551313601105
 30
0.0
 10
279.4093461577928
 20
97.35415160614963
 30
0.0
 10
278.2866380687294
 20
97.28253350630465
 30
0.0
 10
277.2387420559035
 20
97.18722878327965
 30
0.0
 10
276.3080314970704
 20
97.0796650792386
 30
0.0
 10
275.507306296271
 20
96.97006063760352
 30
0.0
 10
274.8726674574135
 20
96.87193080445084
 30
0.0
 10
274.4241754953048
 20
96.79677012111826
 30
0.0
 10
274.1757248490139
 20
96.75293359148249
 30
0.0
 10
274.1691353214025
 20
96.75173892567254
 30
0.0
 10
274.1664090321816
 20
96.75124465586866
 30
0.0
  0
SPLINE
  5
A6
330
1F
100
AcDbEntity
  8
0
  6
Continuous
 62
     7
370
    25
100
AcDbSpline
210
0.0
220
0.0
230
1.0
 70
     8
 71
     3
 72
    27
 73
    23
 74
     0
 42
0.00000001
 43
0.00000001
 40
0.0
 40
0.0
 40
0.0
 40
0.0
 40
0.0147525864591959
 40
0.0687819143493227
 40
0.1209523996172657
 40
0.1746090695373434
 40
0.2272802111615851
 40
0.2814470009190559
 40
0.3346492451336877
 40
0.3894117783974197
 40
0.4422635509455221
 40
0.4966951215148311
 40
0.5487564781978005
 40
0.6023333850422955
 40
0.6543471882931235
 40
0.7078278824201899
 40
0.7605949914193201
 40
0.8148645750071556
 40
0.8680782333669946
 40
0.9228601614265098
 40
0.9756087741792343
 40
1.0
 40
1.0
 40
1.0
 40
1.0
 10
274.1671482526075
 20
178.1443086686949
 30
0.0
 10
274.1613400103558
 20
178.1453406411841
 30
0.0
 10
274.1342598761583
 20
178.1501520716109
 30
0.0
 10
274.2891186313252
 20
178.1225388628765
 30
0.0
 10
274.6341243926069
 20
178.0631880521195
 30
0.0
 10
275.1761691532752
 20
177.9756144640427
 30
0.0
 10
275.893238390604
 20
177.870871623097
 30
0.0
 10
276.7627527347268
 20
177.7607046656097
 30
0.0
 10
277.7750704250965
 20
177.6560787586158
 30
0.0
 10
278.8837978998062
 20
177.5708816784908
 30
0.0
 10
280.0736441594755
 20
177.513882386323
 30
0.0
 10
281.2822542297834
 20
177.4926259509399
 30
0.0
 10
282.4982533443041
 20
177.5085440763839
 30
0.0
 10
283.6645290318766
 20
177.5588271305269
 30
0.0
 10
284.7757836658621
 20
177.6385479338742
 30
0.0
 10
285.78706989035
 20
177.7378924451875
 30
0.0
 10
286.688790062789
 20
177.8478669961238
 30
0.0
 10
287.4395701929603
 20
177.9547411832583
 30
0.0
 10
288.0303615474916
 20
178.0485442666267
 30
0.0
 10
288.4151636062359
 20
178.1141781401065
 30
0.0
 10
288.6030229312444
 20
178.1475603583382
 30
0.0
 10
288.5843900827894
 20
178.1442503232735
 30
0.0
 10
288.5784984705855
 20
178.1432037069695
 30
0.0
  0
LINE
  5
A7
330
1F
100
AcDbEntity
  8
0
  6
Continuous
 62
     7
370
    25
100
AcDbLine
 10
291.1394937662
 20
137.4478425974
 30
0.0
 11
291.1394937662
 21
177.1478425974
 31
0.0
  0
LINE
  5
A8
330
1F
100
AcDbEntity
  8
0
  6
Continuous
 62
     7
370
    25
100
AcDbLine
 10
291.1394937662
 20
97.7478425974
 30
0.0
 11
291.1394937662
 21
137.4478425974
 31
0.0
  0
LINE
  5
A9
330
1F
100
AcDbEntity
  8
0
  6
Continuous
 62
     7
370
    25
100
AcDbLine
 10
274.3759222858
 20
191.2478425974
 30
0.0
 11
288.3759222858
 21
191.2478425974
 31
0.0
  0
LINE
  5
AA
330
1F
100
AcDbEntity
  8
0
  6
Continuous
 62
     7
370
    25
100
AcDbLine
 10
274.3759222858
 20
83.6478425974
 30
0.0
 11
288.3759222858
 21
83.6478425974
 31
0.0
  0
LINE
  5
AB
330
1F
100
AcDbEntity
  8
0
  6
Continuous
 62
     7
370
    25
100
AcDbLine
 10
290.1394937662
 20
137.4478425974
 30
0.0
 11
290.1394937662
 21
178.1478425974
 31
0.0
  0
LINE
  5
AC
330
1F
100
AcDbEntity
  8
0
  6
Continuous
 62
     7
370
    25
100
AcDbLine
 10
290.1394937662
 20
96.7478425974
 30
0.0
 11
290.1394937662
 21
137.4478425974
 31
0.0
  0
LINE
  5
AD
330
1F
100
AcDbEntity
  8
0
  6
Continuous
 62
     7
370
    25
100
AcDbLine
 10
230.7525819549
 20
137.4478425974
 30
0.0
 11
230.7525819549
 21
178.1478425974
 31
0.0
  0
LINE
  5
AE
330
1F
100
AcDbEntity
  8
0
  6
Continuous
 62
     7
370
    25
100
AcDbLine
 10
230.7525819549
 20
96.7478425974
 30
0.0
 11
230.7525819549
 21
137.4478425974
 31
0.0
  0
LINE
  5
AF
330
1F
100
AcDbEntity
  8
0
  6
Continuous
 62
     7
370
    25
100
AcDbLine
 10
228.2725709782
 20
137.4478425974
 30
0.0
 11
228.2725709782
 21
176.8359022989
 31
0.0
  0
LINE
  5
B0
330
1F
100
AcDbEntity
  8
0
  6
Continuous
 62
     7
370
    25
100
AcDbLine
 10
228.2725709782
 20
98.0597828959
 30
0.0
 11
228.2725709782
 21
137.4478425974
 31
0.0
  0
SPLINE
  5
B1
330
1F
100
AcDbEntity
  8
0
  6
Continuous
 62
     7
370
    25
100
AcDbSpline
210
0.0
220
0.0
230
1.0
 70
     8
 71
     3
 72
    23
 73
    19
 74
     0
 42
0.00000001
 43
0.00000001
 40
0.0
 40
0.0
 40
0.0
 40
0.0
 40
0.0459167390308178
 40
0.1126209258996479
 40
0.1794476849374789
 40
0.2464421425310225
 40
0.3136331155958407
 40
0.3810323313970089
 40
0.4486359702789642
 40
0.5164278944132682
 40
0.5843837036276471
 40
0.6524747854766724
 40
0.720671746670241
 40
0.7889469146340147
 40
0.8572758711302685
 40
0.9256381605931429
 40
0.9904534377499347
 40
1.0
 40
1.0
 40
1.0
 40
1.0
 10
203.0503921859575
 20
270.1016123688738
 30
0.0
 10
202.8372014500644
 20
269.9383935270342
 30
0.0
 10
202.3143041673675
 20
269.5380633319846
 30
0.0
 10
201.5426359112527
 20
268.8101727375781
 30
0.0
 10
200.7293785733986
 20
267.9325366799303
 30
0.0
 10
199.9746835201575
 20
266.9768757137815
 30
0.0
 10
199.2778197800082
 20
265.9488266388277
 30
0.0
 10
198.6412077803681
 20
264.8494853094388
 30
0.0
 10
198.0663560803944
 20
263.6815190982697
 30
0.0
 10
197.5548888689723
 20
262.4475448957853
 30
0.0
 10
197.1082042248009
 20
261.1505526527114
 30
0.0
 10
196.7275186603124
 20
259.7937489401846
 30
0.0
 10
196.4138111021691
 20
258.3805495846387
 30
0.0
 10
196.1678729846928
 20
256.9145012629851
 30
0.0
 10
195.9901221487792
 20
255.3993356655543
 30
0.0
 10
195.8832145655214
 20
253.8657239720401
 30
0.0
 10
195.8532095990253
 20
252.7520136964585
 30
0.0
 10
195.8520937932919
 20
252.1638563753775
 30
0.0
 10
195.8519505463123
 20
252.0883488230722
 30
0.0
  0
SPLINE
  5
B2
330
1F
100
AcDbEntity
  8
0
  6
Continuous
 62
     7
370
    25
100
AcDbSpline
210
0.0
220
0.0
230
1.0
 70
     8
 71
     3
 72
    55
 73
    51
 74
     0
 42
0.00000001
 43
0.00000001
 40
0.0
 40
0.0
 40
0.0
 40
0.0
 40
0.0112778932416932
 40
0.0326550986622404
 40
0.0540285840546735
 40
0.0753972100961868
 40
0.09676016285468
 40
0.1181170548062835
 40
0.1394678196983531
 40
0.1608126290140751
 40
0.1821518271505447
 40
0.2034858821136032
 40
0.22481534869752
 40
0.2461408414878324
 40
0.2674630154554685
 40
0.2887825523229834
 40
0.3101001512440377
 40
0.331416522632736
 40
0.3527323842096318
 40
0.3740484585004799
 40
0.3953652426549381
 40
0.4166834514116267
 40
0.4380038129173859
 40
0.4593270533546733
 40
0.4806538931258146
 40
0.5019850408710211
 40
0.5233211843811818
 40
0.5446629772349595
 40
0.5660110196873095
 40
0.587365831963704
 40
0.608727817679857
 40
0.6300972146396955
 40
0.6514740298325413
 40
0.6728579551865865
 40
0.6942482607768561
 40
0.7156436631227696
 40
0.73704216853987
 40
0.7584399306241177
 40
0.7798323949507959
 40
0.8012139346793481
 40
0.8225775570205904
 40
0.8439149604420232
 40
0.8652168080770681
 40
0.8864732917126659
 40
0.9076750283460869
 40
0.9288142607646839
 40
0.9498862309411663
 40
0.9708904884670064
 40
0.9918318315863157
 40
1.0
 40
1.0
 40
1.0
 40
1.0
 10
195.8519505463123
 20
252.0883488230722
 30
0.0
 10
195.8538722165036
 20
251.8016797315163
 30
0.0
 10
195.8594364055191
 20
250.9716304246506
 30
0.0
 10
195.9211142239135
 20
249.570871091454
 30
0.0
 10
196.0590639804385
 20
247.8788770663961
 30
0.0
 10
196.2656855786811
 20
246.1590025107008
 30
0.0
 10
196.5391696608341
 20
244.4158991641276
 30
0.0
 10
196.879063893308
 20
242.6534170235269
 30
0.0
 10
197.2843760256046
 20
240.8756617009804
 30
0.0
 10
197.7540852619307
 20
239.0867040416764
 30
0.0
 10
198.2870079369274
 20
237.2906510820959
 30
0.0
 10
198.8818359944411
 20
235.491619058116
 30
0.0
 10
199.5371293072509
 20
233.6937316400257
 30
0.0
 10
200.2513206650061
 20
231.9011105858906
 30
0.0
 10
201.0227177916726
 20
230.1178677828106
 30
0.0
 10
201.8495066515654
 20
228.3480964438968
 30
0.0
 10
202.7297549390887
 20
226.5958622130345
 30
0.0
 10
203.6614160597883
 20
224.8651941130337
 30
0.0
 10
204.642333513584
 20
223.1600754774505
 30
0.0
 10
205.6702420150289
 20
221.4844409207846
 30
0.0
 10
206.7427754013912
 20
219.8421612652752
 30
0.0
 10
207.8574724711011
 20
218.2370342834354
 30
0.0
 10
209.0117872716292
 20
216.6727707679946
 30
0.0
 10
210.203091812529
 20
215.1529921369957
 30
0.0
 10
211.4286821960144
 20
213.681223081512
 30
0.0
 10
212.685785123113
 20
212.2608843333965
 30
0.0
 10
213.9715644771667
 20
210.8952859479078
 30
0.0
 10
215.2831278840111
 20
209.5876211583357
 30
0.0
 10
216.617533122043
 20
208.3409608524023
 30
0.0
 10
217.971794223081
 20
207.1582487059158
 30
0.0
 10
219.3428870660777
 20
206.0422969843546
 30
0.0
 10
220.7277542215847
 20
204.9957829821239
 30
0.0
 10
222.1233087592596
 20
204.021246004806
 30
0.0
 10
223.5264366909689
 20
203.1210847035198
 30
0.0
 10
224.9339977056415
 20
202.2975544310196
 30
0.0
 10
226.3428238745346
 20
201.5527641070261
 30
0.0
 10
227.7496949813911
 20
200.8886818143321
 30
0.0
 10
229.1513411638971
 20
200.3071180612279
 30
0.0
 10
230.5444403079647
 20
199.8097095656946
 30
0.0
 10
231.9256315507948
 20
199.3978967895993
 30
0.0
 10
233.2915030850818
 20
199.0729061560671
 30
0.0
 10
234.6385881489877
 20
198.8357276973855
 30
0.0
 10
235.96338584132
 20
198.6870666266936
 30
0.0
 10
237.2623583275542
 20
198.6273682725484
 30
0.0
 10
238.5320826862533
 20
198.6565744971905
 30
0.0
 10
239.7688995182652
 20
198.774914634015
 30
0.0
 10
240.9704901759209
 20
198.9799261801234
 30
0.0
 10
242.1303130483834
 20
199.2775884218107
 30
0.0
 10
243.0301326698343
 20
199.5675479280821
 30
0.0
 10
243.5270841782071
 20
199.7878831285649
 30
0.0
 10
243.6665294454086
 20
199.849709484633
 30
0.0
  0
LINE
  5
B3
330
1F
100
AcDbEntity
  8
0
  6
Continuous
 62
     7
370
    25
100
AcDbLine
 10
246.5686316058
 20
295.3728147717
 30
0.0
 11
232.6436675144
 21
287.3341041105
 31
0.0
  0
LINE
  5
B4
330
1F
100
AcDbEntity
  8
0
  6
Continuous
 62
     7
370
    25
100
AcDbLine
 10
224.0992075246
 20
282.401492352
 30
0.0
 11
204.5757435503
 21
271.1308365023
 31
0.0
  0
LINE
  5
B5
330
1F
100
AcDbEntity
  8
0
  6
Continuous
 62
     7
370
    25
100
AcDbLine
 10
245.2724359686
 20
200.6344591045
 30
0.0
 11
287.2653240241
 21
224.8764373739
 31
0.0
  0
LINE
  5
B6
330
1F
100
AcDbEntity
  8
0
  6
Continuous
 62
     7
370
    25
100
AcDbLine
 10
238.3544761093
 20
272.4876649737
 30
0.0
 11
238.1203375449
 21
283.4397373978
 31
0.0
  0
LINE
  5
B7
330
1F
100
AcDbEntity
  8
0
  6
Continuous
 62
     7
370
    25
100
AcDbLine
 10
224.1214036164
 20
283.4397373978
 30
0.0
 11
223.886997388
 21
272.4751447181
 31
0.0
  0
SPLINE
  5
B8
330
1F
100
AcDbEntity
  8
0
  6
Continuous
 62
     7
370
    25
100
AcDbSpline
210
0.0
220
0.0
230
1.0
 70
     8
 71
     3
 72
    34
 73
    30
 74
     0
 42
0.00000001
 43
0.00000001
 40
0.0
 40
0.0
 40
0.0
 40
0.0
 40
0.0181179528495818
 40
0.0565277352386473
 40
0.0949652600535467
 40
0.1334341609336602
 40
0.1719377170938404
 40
0.2104786761858163
 40
0.2490590115303082
 40
0.2876795961784004
 40
0.3263397747946623
 40
0.3650368154326452
 40
0.4037652294270097
 40
0.4425159626672849
 40
0.4812729864804609
 40
0.5200123013013348
 40
0.5587066977502297
 40
0.5973224107843541
 40
0.6358197060938336
 40
0.6741546013579996
 40
0.7122819177205969
 40
0.7501595732459552
 40
0.7877536367056207
 40
0.8250433058851501
 40
0.8620248420049632
 40
0.8987136790575313
 40
0.9351443628195083
 40
0.97136845761904
 40
1.0
 40
1.0
 40
1.0
 40
1.0
 10
281.8960900251108
 20
281.7986774388621
 30
0.0
 10
281.7038726883161
 20
282.0320381690736
 30
0.0
 10
281.1041575431883
 20
282.760120071152
 30
0.0
 10
280.0607057963985
 20
283.9284168617165
 30
0.0
 10
278.7705504393985
 20
285.3021178955318
 30
0.0
 10
277.450109369116
 20
286.6155583451283
 30
0.0
 10
276.1044878277202
 20
287.8691325475186
 30
0.0
 10
274.7357786174987
 20
289.0588663174937
 30
0.0
 10
273.3469235482532
 20
290.18207109902
 30
0.0
 10
271.940680123932
 20
291.2358234213242
 30
0.0
 10
270.5199066332641
 20
292.217368431963
 30
0.0
 10
269.0874999191181
 20
293.1240072890687
 30
0.0
 10
267.6464340576891
 20
293.9531250196761
 30
0.0
 10
266.1998116166186
 20
294.7021692366915
 30
0.0
 10
264.7509294301246
 20
295.3686573021427
 30
0.0
 10
263.3032766792967
 20
295.9502328674824
 30
0.0
 10
261.8605373041736
 20
296.4447209356363
 30
0.0
 10
260.4265807025163
 20
296.8501900311475
 30
0.0
 10
259.0054991092775
 20
297.1650105837022
 30
0.0
 10
257.6015737386232
 20
297.3879424114705
 30
0.0
 10
256.2192042475633
 20
297.5182172027945
 30
0.0
 10
254.8627963642611
 20
297.5556107148546
 30
0.0
 10
253.5366465199771
 20
297.5004402424116
 30
0.0
 10
252.2447488516068
 20
297.3536451950151
 30
0.0
 10
250.9909062495167
 20
297.1163209165091
 30
0.0
 10
249.7778514360032
 20
296.7910347399283
 30
0.0
 10
248.6102359763413
 20
296.376394101629
 30
0.0
 10
247.5607758763086
 20
295.9200414057173
 30
0.0
 10
246.9232510328146
 20
295.5632871275069
 30
0.0
 10
246.6418056509025
 20
295.4057923332188
 30
0.0
  0
SPLINE
  5
B9
330
1F
100
AcDbEntity
  8
0
  6
Continuous
 62
     7
370
    25
100
AcDbSpline
210
0.0
220
0.0
230
1.0
 70
     8
 71
     3
 72
    35
 73
    31
 74
     0
 42
0.00000001
 43
0.00000001
 40
0.0
 40
0.0
 40
0.0
 40
0.0
 40
0.0220145793986706
 40
0.0565711472080988
 40
0.0911485947651375
 40
0.1258191111121971
 40
0.1606477745371775
 40
0.1956884007864508
 40
0.2309802571193494
 40
0.2665459818366196
 40
0.3023910324750524
 40
0.3385048297517939
 40
0.3748634807234885
 40
0.4114336379390828
 40
0.4481768156155392
 40
0.4850534449959444
 40
0.5220261186586385
 40
0.5590617590790067
 40
0.5961327266461426
 40
0.6332161300564891
 40
0.670291889029215
 40
0.7073495114224094
 40
0.7443821463518885
 40
0.7813858296768251
 40
0.8183588196712488
 40
0.8553010451562439
 40
0.8922136646031592
 40
0.9290987242731099
 40
0.9659588995771977
 40
0.9999999999999999
 40
0.9999999999999999
 40
0.9999999999999999
 40
0.9999999999999999
 10
287.2552768930752
 20
224.8833589593138
 30
0.0
 10
287.4793819800343
 20
225.011919994358
 30
0.0
 10
288.0552676980788
 20
225.3422849360181
 30
0.0
 10
288.9273024199234
 20
225.9666806763893
 30
0.0
 10
289.8738478049953
 20
226.7428945672484
 30
0.0
 10
290.7635742979131
 20
227.5992065674028
 30
0.0
 10
291.5974539924442
 20
228.5299207724851
 30
0.0
 10
292.3731719929089
 20
229.5348401678231
 30
0.0
 10
293.0891406314815
 20
230.6121851385771
 30
0.0
 10
293.7434281728611
 20
231.7603295886895
 30
0.0
 10
294.3341093360193
 20
232.9771731209829
 30
0.0
 10
294.8592722629261
 20
234.2601953027678
 30
0.0
 10
295.3171406934294
 20
235.6063901430894
 30
0.0
 10
295.7061635818491
 20
237.0123051444728
 30
0.0
 10
296.0250900573085
 20
238.4741144522705
 30
0.0
 10
296.2730103405924
 20
239.9877222229005
 30
0.0
 10
296.449364090358
 20
241.5488691663969
 30
0.0
 10
296.5539217681558
 20
243.153225144529
 30
0.0
 10
296.5867490496676
 20
244.7964434433097
 30
0.0
 10
296.5481690294552
 20
246.4741626384834
 30
0.0
 10
296.4387291450726
 20
248.1820960549894
 30
0.0
 10
296.2591580883241
 20
249.9160492080211
 30
0.0
 10
296.0103276238679
 20
251.6719538165554
 30
0.0
 10
295.693222845173
 20
253.4457757656841
 30
0.0
 10
295.308984838534
 20
255.2335111907128
 30
0.0
 10
294.8587036717154
 20
257.031148050217
 30
0.0
 10
294.3441615996095
 20
258.8347676841429
 30
0.0
 10
293.7650471140317
 20
260.6401387528082
 30
0.0
 10
293.1454140050241
 20
262.3985821904397
 30
0.0
 10
292.6888094920241
 20
263.5505357325143
 30
0.0
 10
292.4695846625526
 20
264.1036113409028
 30
0.0
  0
LINE
  5
BA
330
1F
100
AcDbEntity
  8
0
  6
Continuous
 62
     7
370
    25
100
AcDbLine
 10
223.9632342274
 20
202.8787450768
 30
0.0
 11
224.1214036164
 21
195.4802090541
 31
0.0
  0
LINE
  5
BB
330
1F
100
AcDbEntity
  8
0
  6
Continuous
 62
     7
370
    25
100
AcDbLine
 10
238.1203375449
 20
195.4802090541
 30
0.0
 11
238.1883951036
 21
198.6636714373
 31
0.0
  0
LWPOLYLINE
  5
BC
330
1F
100
AcDbEntity
  8
0
  6
Continuous
 62
     7
370
    25
100
AcDbPolyline
 90
      122
 70
   128
 43
0.0
 10
196.1448437651
 20
251.6801447672
 10
196.1826825272
 20
253.3408498709
 10
196.296096807
 20
254.9533903025
 10
196.4847808595
 20
256.513418938
 10
196.7482260259
 20
258.016730216
 10
197.0857221047
 20
259.4592714751
 10
197.496359266
 20
260.8371538792
 10
197.9790305047
 20
262.1466629008
 10
198.5324346245
 20
263.3842683351
 10
199.1550797457
 20
264.5466338167
 10
199.8452873271
 20
265.6306258138
 10
200.6011966911
 20
266.6333220756
 10
201.4207700397
 20
267.5520195103
 10
202.3017979481
 20
268.3842414719
 10
203.2419053208
 20
269.1277444372
 10
204.2385577945
 20
269.7805240537
 10
205.2890685704
 20
270.340820543
 10
206.3906056571
 20
270.8071234446
 10
207.5401995053
 20
271.1781756886
 10
208.7347510135
 20
271.4529769836
 10
209.9710398817
 20
271.6307865139
 10
211.245733294
 20
271.7111249364
 10
212.555394902
 20
271.693775673
 10
213.8964940898
 20
271.5787854943
 10
215.265415491
 20
271.3664643933
 10
216.6584687355
 20
271.0573847504
 10
218.0718983981
 20
270.6523797894
 10
219.5018941223
 20
270.1525413323
 10
220.9446008924
 20
269.5592168551
 10
222.3961294261
 20
268.8740058557
 10
223.852566659
 20
268.0987555418
 10
225.3099862939
 20
267.2355558512
 10
226.7644593851
 20
266.2867338177
 10
228.2120649303
 20
265.2548472976
 10
229.6489004409
 20
264.1426780748
 10
231.0710924623
 20
262.9532243606
 10
232.4748070164
 20
261.6896927121
 10
233.8562599368
 20
260.3554893872
 10
235.2117270708
 20
258.9542111621
 10
236.5375543185
 20
257.4896356353
 10
237.8301674841
 20
255.9657110434
 10
239.0860819111
 20
254.3865456176
 10
240.3019118762
 20
252.7563965089
 10
241.4743797167
 20
251.0796583109
 10
242.6003246667
 20
249.3608512133
 10
243.6767113777
 20
247.6046088164
 10
244.7006381013
 20
245.815665639
 10
245.6693445122
 20
243.9988443557
 10
246.5802191491
 20
242.1590427954
 10
247.430806455
 20
240.301220738
 10
248.218813397
 20
238.4303865431
 10
248.9421156477
 20
236.5515836491
 10
249.598763312
 20
234.6698769763
 10
250.186986184
 20
232.7903392733
 10
250.7051985188
 20
230.9180374414
 10
251.1520033075
 20
229.0580188753
 10
251.5261960435
 20
227.2152978563
 10
251.8267679693
 20
225.3948420344
 10
252.052908796
 20
223.6015590367
 10
252.2040088881
 20
221.8402832371
 10
252.2796609064
 20
220.1157627237
 10
252.2796609064
 20
218.432646499
 10
252.2040088881
 20
216.7954719467
 10
252.052908796
 20
215.2086526
 10
251.8267679693
 20
213.6764662432
 10
251.5261960435
 20
212.20304338
 10
251.1520033075
 20
210.7923560979
 10
250.7051985188
 20
209.4482073603
 10
250.186986184
 20
208.1742207547
 10
249.598763312
 20
206.9738307236
 10
248.9421156477
 20
205.8502733064
 10
248.218813397
 20
204.8065774152
 10
247.430806455
 20
203.8455566696
 10
246.5802191491
 20
202.9698018117
 10
245.6693445122
 20
202.1816737217
 10
244.7006381013
 20
201.4832970537
 10
243.6767113777
 20
200.8765545075
 10
242.6003246667
 20
200.3630817539
 10
241.4743797167
 20
199.9442630247
 10
240.3019118762
 20
199.621227381
 10
239.0860819111
 20
199.3948456699
 10
237.8301674841
 20
199.2657281764
 10
236.5375543185
 20
199.2342229784
 10
235.2117270708
 20
199.3004150085
 10
233.8562599368
 20
199.4641258246
 10
232.4748070164
 20
199.7249140912
 10
231.0710924623
 20
200.0820767694
 10
229.6489004409
 20
200.5346510117
 10
228.2120649303
 20
201.0814167579
 10
226.7644593851
 20
201.7209000242
 10
225.3099862939
 20
202.4513768769
 10
223.852566659
 20
203.2708780795
 10
222.3961294261
 20
204.1771944016
 10
220.9446008924
 20
205.1678825747
 10
219.5018941223
 20
206.2402718785
 10
218.0718983981
 20
207.3914713412
 10
216.6584687355
 20
208.6183775325
 10
215.265415491
 20
209.9176829302
 10
213.8964940898
 20
211.2858848367
 10
212.555394902
 20
212.7192948215
 10
211.245733294
 20
214.2140486648
 10
209.9710398817
 20
215.7661167744
 10
208.7347510135
 20
217.3713150492
 10
207.5401995053
 20
219.0253161584
 10
206.3906056571
 20
220.7236612073
 10
205.2890685704
 20
222.4617717581
 10
204.2385577945
 20
224.234962172
 10
203.2419053208
 20
226.0384522411
 10
202.3017979481
 20
227.867380075
 10
201.4207700397
 20
229.7168152077
 10
200.6011966911
 20
231.5817718889
 10
199.8452873271
 20
233.4572225253
 10
199.1550797457
 20
235.3381112335
 10
198.5324346245
 20
237.21936747
 10
197.9790305047
 20
239.0959197007
 10
197.496359266
 20
240.9627090725
 10
197.0857221047
 20
242.8147030512
 10
196.7482260259
 20
244.6469089886
 10
196.4847808595
 20
246.4543875814
 10
196.296096807
 20
248.2322661869
 10
196.1826825272
 20
249.9757519586
 10
196.1448437651
 20
251.6801447672
  0
ARC
  5
BD
330
1F
100
AcDbEntity
  8
0
  6
Continuous
 62
     7
370
    25
100
AcDbCircle
 10
211.3844472533
 20
259.3363809705
 30
0.0
 40
13.61853361603616
100
AcDbArc
 50
113.0448140933
 51
127.3854330935
  0
ARC
  5
BE
330
1F
100
AcDbEntity
  8
0
  6
Continuous
 62
     7
370
    25
100
AcDbCircle
 10
238.4645786171
 20
212.4273960138
 30
0.0
 40
13.61681471924425
100
AcDbArc
 50
292.8215964983
 51
307.4139010351
  0
LINE
  5
BF
330
1F
100
AcDbEntity
  8
0
  6
Continuous
 62
     7
370
    25
100
AcDbLine
 10
246.5686316058
 20
295.3728147717
 30
0.0
 11
246.6291074556
 21
295.4075198654
 31
0.0
  0
LINE
  5
C0
330
1F
100
AcDbEntity
  8
0
  6
Continuous
 62
     7
370
    25
100
AcDbLine
 10
238.3549674311
 20
272.3866775188
 30
0.0
 11
238.3430114037
 21
272.4869993398
 31
0.0
  0
SPLINE
  5
C1
330
1F
100
AcDbEntity
  8
0
  6
Continuous
 62
     7
370
    25
100
AcDbSpline
210
0.0
220
0.0
230
1.0
 70
     8
 71
     3
 72
    27
 73
    23
 74
     0
 42
0.00000001
 43
0.00000001
 40
0.0
 40
0.0
 40
0.0
 40
0.0
 40
0.0151212705612369
 40
0.0685848398437788
 40
0.1225290125062464
 40
0.1764695319702272
 40
0.2299455645435428
 40
0.2834205326295834
 40
0.3363033587061988
 40
0.3891891643072478
 40
0.4422969386002479
 40
0.495406979293008
 40
0.5492015061939745
 40
0.6029935505062072
 40
0.6568220391185048
 40
0.710646416504937
 40
0.7636816866433324
 40
0.8167175203501422
 40
0.8693047434249813
 40
0.9218959400243629
 40
0.9609476439653099
 40
1.0
 40
1.0
 40
1.0
 40
1.0
 10
223.9081099634263
 20
272.474256004787
 30
0.0
 10
223.9009400563899
 20
272.4166510296582
 30
0.0
 10
223.8684198442961
 20
272.1553748374617
 30
0.0
 10
224.0134350616682
 20
271.6884390819171
 30
0.0
 10
224.3529446358492
 20
271.085412133316
 30
0.0
 10
224.8980176385992
 20
270.5041796769257
 30
0.0
 10
225.6187540470521
 20
269.9591101595304
 30
0.0
 10
226.4879338803389
 20
269.4643765785511
 30
0.0
 10
227.4851224416201
 20
269.033528785276
 30
0.0
 10
228.5774774877216
 20
268.6777595781956
 30
0.0
 10
229.7419030967084
 20
268.4125440444062
 30
0.0
 10
230.949744350713
 20
268.2474494104944
 30
0.0
 10
232.1679777155884
 20
268.2001395905929
 30
0.0
 10
233.3636552856902
 20
268.2765962640843
 30
0.0
 10
234.4960702812734
 20
268.4882560323561
 30
0.0
 10
235.5305408443716
 20
268.8274189180783
 30
0.0
 10
236.4333638258302
 20
269.2921202013722
 30
0.0
 10
237.1840427458981
 20
269.8601059057595
 30
0.0
 10
237.7618282036629
 20
270.5194955232996
 30
0.0
 10
238.1221562532749
 20
271.1808185052998
 30
0.0
 10
238.3164751986486
 20
271.8104125020834
 30
0.0
 10
238.3421366155485
 20
272.1945881107559
 30
0.0
 10
238.3549674311226
 20
272.3866775188405
 30
0.0
  0
LWPOLYLINE
  5
C2
330
1F
100
AcDbEntity
  8
0
  6
Continuous
 62
     7
370
    25
100
AcDbPolyline
 90
      110
 70
   128
 43
0.0
 10
201.6602766584
 20
248.4961531311
 10
201.6977422134
 20
249.9751816264
 10
201.8100144215
 20
251.4060401288
 10
201.9967203258
 20
252.7839754702
 10
202.257239708
 20
254.104410288
 10
202.590707149
 20
255.3629582305
 10
202.9960149034
 20
256.5554385279
 10
203.4718165797
 20
257.6778898807
 10
204.0165316125
 20
258.7265836184
 10
204.6283505132
 20
259.6980360858
 10
205.3052408811
 20
260.5890202155
 10
206.0449541543
 20
261.3965762479
 10
206.8450330798
 20
262.1180215629
 10
207.7028198758
 20
262.7509595919
 10
208.6154650609
 20
263.2932877784
 10
209.5799369195
 20
263.7432045626
 10
210.5930315732
 20
264.0992153662
 10
211.6513836233
 20
264.3601375572
 10
212.7514773308
 20
264.5251043783
 10
213.889658295
 20
264.5935678263
 10
215.0621455933
 20
264.5653004725
 10
216.2650443406
 20
264.4403962181
 10
217.4943586285
 20
264.2192699827
 10
218.7460047983
 20
263.9026563252
 10
220.0158250075
 20
263.4916070045
 10
221.299601041
 20
262.987487485
 10
222.5930683238
 20
262.3919724011
 10
223.8919300879
 20
261.707039994
 10
225.1918716449
 20
260.9349655402
 10
226.4885747199
 20
260.0783137935
 10
227.7777317955
 20
259.1399304648
 10
229.0550604217
 20
258.1229327692
 10
230.3163174411
 20
257.0306990707
 10
231.5573130848
 20
255.8668576599
 10
232.7739248901
 20
254.6352747008
 10
233.9621113949
 20
253.3400413882
 10
235.1179255631
 20
251.985460357
 10
236.2375278963
 20
250.576031389
 10
237.3171991882
 20
249.1164364655
 10
238.3533528792
 20
247.6115242142
 10
239.3425469711
 20
246.0662938021
 10
240.2814954605
 20
244.4858783293
 10
241.167079255
 20
242.8755277771
 10
241.9963565342
 20
241.240591568
 10
242.7665725225
 20
239.5865007958
 10
243.4751686398
 20
237.9187501836
 10
244.119791001
 20
236.2428798312
 10
244.6982982355
 20
234.5644568114
 10
245.2087686005
 20
232.8890566767
 10
245.6495063646
 20
231.2222449378
 10
246.0190474415
 20
229.5695585758
 10
246.3161642528
 20
227.9364876485
 10
246.5398698062
 20
226.3284570533
 10
246.6894209746
 20
224.7508085061
 10
246.7643209639
 20
223.2087827967
 10
246.7643209639
 20
221.7075023795
 10
246.6894209746
 20
220.2519543571
 10
246.5398698062
 20
218.8469739135
 10
246.3161642528
 20
217.4972282526
 10
246.0190474415
 20
216.2072010937
 10
245.6495063646
 20
214.9811777772
 10
245.2087686005
 20
213.8232310294
 10
244.6982982355
 20
212.7372074328
 10
244.119791001
 20
211.7267146487
 10
243.4751686398
 20
210.7951094324
 10
242.7665725225
 20
209.9454864829
 10
241.9963565342
 20
209.180668162
 10
241.167079255
 20
208.5031951194
 10
240.2814954605
 20
207.9153178523
 10
239.3425469711
 20
207.41898923
 10
238.3533528792
 20
207.0158580061
 10
237.3171991882
 20
206.7072633421
 10
236.2375278963
 20
206.4942303584
 10
235.1179255631
 20
206.3774667292
 10
233.9621113949
 20
206.3573603315
 10
232.7739248901
 20
206.4339779567
 10
231.5573130848
 20
206.6070650887
 10
230.3163174411
 20
206.8760467496
 10
229.0550604217
 20
207.2400294093
 10
227.7777317955
 20
207.6978039541
 10
226.4885747199
 20
208.2478497028
 10
225.1918716449
 20
208.8883394589
 10
223.8919300879
 20
209.6171455798
 10
222.5930683238
 20
210.4318470448
 10
221.299601041
 20
211.3297374976
 10
220.0158250075
 20
212.3078342365
 10
218.7460047983
 20
213.3628881224
 10
217.4943586285
 20
214.4913943724
 10
216.2650443406
 20
215.6896042023
 10
215.0621455933
 20
216.9535372795
 10
213.889658295
 20
218.2789949453
 10
212.7514773308
 20
219.6615741629
 10
211.6513836233
 20
221.0966821429
 10
210.5930315732
 20
222.5795516011
 10
209.5799369195
 20
224.1052565942
 10
208.6154650609
 20
225.6687288837
 10
207.7028198758
 20
227.2647747718
 10
206.8450330798
 20
228.8880923547
 10
206.0449541543
 20
230.5332891345
 10
205.3052408811
 20
232.1948999331
 10
204.6283505132
 20
233.8674050464
 10
204.0165316125
 20
235.5452485806
 10
203.4718165797
 20
237.2228569083
 10
202.9960149034
 20
238.8946571833
 10
202.590707149
 20
240.5550958532
 10
202.257239708
 20
242.1986571078
 10
201.9967203258
 20
243.8198812018
 10
201.8100144215
 20
245.4133825919
 10
201.6977422134
 20
246.9738678267
 10
201.6602766584
 20
248.4961531311
  0
LWPOLYLINE
  5
C3
330
1F
100
AcDbEntity
  8
0
  6
Continuous
 62
     7
370
    25
100
AcDbPolyline
 90
       52
 70
   128
 43
0.0
 10
236.0706180489
 20
286.2472972968
 10
235.4248354803
 20
286.5767839367
 10
234.713809191
 20
286.8579601932
 10
233.9483176147
 20
287.086563721
 10
233.1399648236
 20
287.2591291236
 10
232.3010046219
 20
287.3730404854
 10
231.4441547912
 20
287.4265710263
 10
230.5824043013
 20
287.4189092778
 10
229.7288164113
 20
287.3501713842
 10
228.8963306436
 20
287.221399342
 10
228.0975666337
 20
287.034545204
 10
227.3446328299
 20
286.7924414885
 10
226.6489429411
 20
286.498758241
 10
226.0210429169
 20
286.1579474002
 10
225.4704510815
 20
285.7751753111
 10
225.0055138461
 20
285.3562444083
 10
224.6332791851
 20
284.9075052573
 10
224.3593897966
 20
284.4357602862
 10
224.1879975645
 20
283.9481606678
 10
224.1217006203
 20
283.4520979155
 10
224.1615039582
 20
282.9550918348
 10
224.3068042001
 20
282.4646765313
 10
224.5553987424
 20
281.9882862011
 10
224.9035191454
 20
281.533142436
 10
225.3458882584
 20
281.1061447515
 10
225.8758002168
 20
280.7137659973
 10
226.4852220954
 20
280.3619542354
 10
227.1649156797
 20
280.0560425733
 10
227.9045775078
 20
279.8006683201
 10
228.6929950604
 20
279.5997026892
 10
229.518216731
 20
279.4561921146
 10
230.3677330003
 20
279.3723120704
 10
231.2286660677
 20
279.3493340925
 10
232.0879650653
 20
279.3876065038
 10
232.9326038964
 20
279.4865491333
 10
233.7497786971
 20
279.6446621118
 10
234.5271019306
 20
279.8595486076
 10
235.2527901689
 20
280.1279511605
 10
235.9158427182
 20
280.4458010614
 10
236.5062083775
 20
280.8082800298
 10
237.0149378054
 20
281.209893254
 10
237.4343191822
 20
281.644552687
 10
237.7579951138
 20
282.1056693347
 10
237.9810590029
 20
282.5862531389
 10
238.1001294285
 20
283.079018939
 10
238.1134014042
 20
283.5764969077
 10
238.0206737405
 20
284.0711457861
 10
237.8233520941
 20
284.5554672014
 10
237.52442766
 20
285.0221193348
 10
237.1284318281
 20
285.4640282154
 10
236.6413674915
 20
285.8744949552
 10
236.0706180489
 20
286.2472972968
  0
LWPOLYLINE
  5
C4
330
1F
100
AcDbEntity
  8
0
  6
Continuous
 62
     7
370
    25
100
AcDbPolyline
 90
       43
 70
   128
 43
0.0
 10
234.4796277913
 20
285.328838171
 10
233.9415164621
 20
285.5961698597
 10
233.3403965649
 20
285.8142164309
 10
232.6896961249
 20
285.9781070845
 10
232.0039507147
 20
286.0841807741
 10
231.2984787534
 20
286.1300679888
 10
230.5890393191
 20
286.114743684
 10
229.8914801164
 20
286.0385501794
 10
229.2213834651
 20
285.9031895119
 10
228.5937182172
 20
285.7116854152
 10
228.0225053771
 20
285.4683157744
 10
227.5205048957
 20
285.178517065
 10
227.0989306343
 20
284.8487629114
 10
226.7671998653
 20
284.4864194765
 10
226.5327229058
 20
284.0995809138
 10
226.4007375836
 20
283.6968885576
 10
226.3741922329
 20
283.2873378897
 10
226.4536798328
 20
282.8800775953
 10
226.6374247617
 20
282.4842051963
 10
226.9213224615
 20
282.108563828
 10
227.2990311267
 20
281.7615446979
 10
227.76211337
 20
281.4508996398
 10
228.3002246992
 20
281.1835679511
 10
228.9013445963
 20
280.9655213799
 10
229.5520450363
 20
280.8016307263
 10
230.2377904466
 20
280.6955570367
 10
230.9432624078
 20
280.649669822
 10
231.6527018421
 20
280.6649941268
 10
232.3502610449
 20
280.7411876315
 10
233.0203576962
 20
280.876548299
 10
233.6480229441
 20
281.0680523957
 10
234.2192357842
 20
281.3114220365
 10
234.7212362656
 20
281.6012207458
 10
235.142810527
 20
281.9309748994
 10
235.474541296
 20
282.2933183344
 10
235.7090182555
 20
282.6801568971
 10
235.8410035776
 20
283.0828492533
 10
235.8675489284
 20
283.4923999212
 10
235.7880613285
 20
283.8996602156
 10
235.6043163996
 20
284.2955326145
 10
235.3204186998
 20
284.6711739828
 10
234.9427100345
 20
285.0181931129
 10
234.4796277913
 20
285.328838171
  0
ARC
  5
C5
330
1F
100
AcDbEntity
  8
0
  6
Continuous
 62
     7
370
    25
100
AcDbCircle
 10
230.1581730577
 20
238.8947136646
 30
0.0
 40
67.21811533572698
100
AcDbArc
 50
22.0444054491
 51
39.5833436811
  0
LWPOLYLINE
  5
C6
330
1F
100
AcDbEntity
  8
0
  6
Continuous
 62
     7
370
    25
100
AcDbPolyline
 90
       27
 70
   128
 43
0.0
 10
224.1214036164
 20
195.4802090541
 10
224.1615039582
 20
195.0953004759
 10
224.3068042001
 20
194.6048851724
 10
224.5553987424
 20
194.1284948422
 10
224.9035191454
 20
193.6733510771
 10
225.3458882584
 20
193.2463533926
 10
225.8758002168
 20
192.8539746384
 10
226.4852220954
 20
192.5021628765
 10
227.1649156797
 20
192.1962512144
 10
227.9045775078
 20
191.9408769612
 10
228.6929950604
 20
191.7399113303
 10
229.518216731
 20
191.5964007557
 10
230.3677330003
 20
191.5125207115
 10
231.2286660677
 20
191.4895427336
 10
232.0879650653
 20
191.5278151449
 10
232.9326038964
 20
191.6267577744
 10
233.7497786971
 20
191.7848707529
 10
234.5271019306
 20
191.9997572487
 10
235.2527901689
 20
192.2681598016
 10
235.9158427182
 20
192.5860097025
 10
236.5062083775
 20
192.9484886709
 10
237.0149378054
 20
193.3501018951
 10
237.4343191822
 20
193.784761328
 10
237.7579951138
 20
194.2458779758
 10
237.9810590029
 20
194.72646178
 10
238.1001294285
 20
195.2192275801
 10
238.1203375449
 20
195.4802090541
  0
LWPOLYLINE
  5
C7
330
1F
100
AcDbEntity
  8
0
  6
Continuous
 62
     7
370
    25
100
AcDbPolyline
 90
       61
 70
   128
 43
0.0
 10
206.0534588554
 20
271.8681414435
 10
206.3314665094
 20
271.9828915278
 10
207.4773795292
 20
272.3845550682
 10
208.6688090239
 20
272.6909893003
 10
209.9026466901
 20
272.9013947722
 10
211.1756735861
 20
273.0152225599
 10
212.4845685301
 20
273.0321756999
 10
213.8259167647
 20
272.9522099632
 10
215.1962188655
 20
272.7755339714
 10
216.5918998707
 20
272.502608652
 10
218.009318608
 20
272.134146036
 10
219.4447771936
 20
271.6711074002
 10
220.8945306802
 20
271.1147007595
 10
222.3547968263
 20
270.4663777155
 10
223.8217659643
 20
269.7278296688
 10
225.2916109392
 20
268.900983407
 10
226.7604970934
 20
267.9879960776
 10
228.2245922704
 20
266.9912495604
 10
229.6800768133
 20
265.913344253
 10
231.123153529
 20
264.7570922875
 10
232.5500575951
 20
263.5255101932
 10
233.9570663818
 20
262.2218110271
 10
235.3405091639
 20
260.8493959915
 10
236.6967766971
 20
259.4118455606
 10
238.0223306343
 20
257.9129101392
 10
239.3137127566
 20
256.3565002788
 10
240.5675539954
 20
254.746676475
 10
241.7805832222
 20
253.0876385742
 10
242.9496357822
 20
251.3837148169
 10
244.0716617508
 20
249.6393505457
 10
245.1437338903
 20
247.8590966078
 10
246.1630552869
 20
246.0475974823
 10
247.1269666474
 20
244.2095791638
 10
248.0329532373
 20
242.3498368321
 10
248.8786514409
 20
240.4732223427
 10
249.6618549281
 20
238.5846315684
 10
250.3805204106
 20
236.688991627
 10
251.032772972
 20
234.7912480266
 10
251.61691096
 20
232.8963517636
 10
252.1314104252
 20
231.0092464061
 10
252.5749290973
 20
229.1348551963
 10
252.9463098867
 20
227.278068207
 10
253.2445839033
 20
225.4437295834
 10
253.4689729843
 20
223.6366249055
 10
253.6188917242
 20
221.8614687032
 10
253.693949002
 20
220.1228921562
 10
253.693949002
 20
218.4254310122
 10
253.6188917242
 20
216.7735137536
 10
253.4689729843
 20
215.171450044
 10
253.2445839033
 20
213.6234194845
 10
252.9463098867
 20
212.1334607101
 10
252.5749290973
 20
210.7054608532
 10
252.1314104252
 20
209.3431454024
 10
251.61691096
 20
208.0500684832
 10
251.032772972
 20
206.8296035854
 10
250.3805204106
 20
205.6849347629
 10
249.6618549281
 20
204.6190483257
 10
248.8786514409
 20
203.6347250499
 10
248.0329532373
 20
202.7345329226
 10
247.1269666474
 20
201.9208204422
 10
246.7377271523
 20
201.612006219
  0
LWPOLYLINE
  5
C8
330
1F
100
AcDbEntity
  8
0
  6
Continuous
 62
     7
370
    25
100
AcDbPolyline
 90
       63
 70
   128
 43
0.0
 10
246.6291074556
 20
295.4075198654
 10
247.2269475764
 20
295.7290248428
 10
248.324354565
 20
296.2248697973
 10
249.4702675848
 20
296.6265333377
 10
250.6616970795
 20
296.9329675698
 10
251.8955347456
 20
297.1433730416
 10
253.1685616416
 20
297.2572008294
 10
254.4774565857
 20
297.2741539693
 10
255.8188048203
 20
297.1941882327
 10
257.189106921
 20
297.0175122409
 10
258.5847879262
 20
296.7445869215
 10
260.0022066635
 20
296.3761243054
 10
261.4376652492
 20
295.9130856696
 10
262.8874187357
 20
295.356679029
 10
264.3476848818
 20
294.7083559849
 10
265.8146540198
 20
293.9698079382
 10
267.2844989948
 20
293.1429616765
 10
268.7533851489
 20
292.2299743471
 10
270.217480326
 20
291.2332278298
 10
271.6729648688
 20
290.1553225225
 10
273.1160415845
 20
288.999070557
 10
274.5429456506
 20
287.7674884626
 10
275.9499544374
 20
286.4637892965
 10
277.3333972195
 20
285.091374261
 10
278.6896647527
 20
283.65382383
 10
280.0152186898
 20
282.1548884087
 10
281.3066008121
 20
280.5984785483
 10
282.560442051
 20
278.9886547444
 10
283.7734712778
 20
277.3296168436
 10
284.9425238378
 20
275.6256930864
 10
286.0645498064
 20
273.8813288152
 10
287.1366219458
 20
272.1010748772
 10
288.1559433424
 20
270.2895757518
 10
289.119854703
 20
268.4515574333
 10
290.0258412928
 20
266.5918151016
 10
290.8715394964
 20
264.7152006121
 10
291.6547429837
 20
262.8266098379
 10
292.3734084661
 20
260.9309698964
 10
293.0256610275
 20
259.0332262961
 10
293.6097990155
 20
257.1383300331
 10
294.1242984808
 20
255.2512246755
 10
294.5678171529
 20
253.3768334657
 10
294.9391979423
 20
251.5200464764
 10
295.2374719589
 20
249.6857078528
 10
295.4618610399
 20
247.878603175
 10
295.6117797797
 20
246.1034469726
 10
295.6868370576
 20
244.3648704256
 10
295.6868370576
 20
242.6674092817
 10
295.6117797797
 20
241.0154920231
 10
295.4618610399
 20
239.4134283134
 10
295.2374719589
 20
237.8653977539
 10
294.9391979423
 20
236.3754389796
 10
294.5678171529
 20
234.9474391227
 10
294.1242984808
 20
233.5851236719
 10
293.6097990155
 20
232.2920467526
 10
293.0256610275
 20
231.0715818549
 10
292.3734084661
 20
229.9269130323
 10
291.6547429837
 20
228.8610265951
 10
290.8715394964
 20
227.8767033193
 10
290.0258412928
 20
226.976511192
 10
289.119854703
 20
226.1627987116
 10
288.1559433424
 20
225.4376887611
 10
287.2653240241
 20
224.8764373739
  0
LINE
  5
C9
330
1F
100
AcDbEntity
  8
0
  6
Continuous
 62
     7
370
    25
100
AcDbLine
 10
-40.1576278212
 20
178.1478425974
 30
0.0
 11
-41.7186231169
 21
178.1478425974
 31
0.0
  0
LINE
  5
CA
330
1F
100
AcDbEntity
  8
0
  6
Continuous
 62
     7
370
    25
100
AcDbLine
 10
17.6682886945
 20
178.1478425974
 30
0.0
 11
-25.7462776033
 21
178.1478425974
 31
0.0
  0
LINE
  5
CB
330
1F
100
AcDbEntity
  8
0
  6
Continuous
 62
     7
370
    25
100
AcDbLine
 10
-25.7455383828
 20
96.7478425974
 30
0.0
 11
17.6682886945
 21
96.7478425974
 31
0.0
  0
LINE
  5
CC
330
1F
100
AcDbEntity
  8
0
  6
Continuous
 62
     7
370
    25
100
AcDbLine
 10
-41.7186231169
 20
96.7478425974
 30
0.0
 11
-40.1826568599
 21
96.7478425974
 31
0.0
  0
ARC
  5
CD
330
1F
100
AcDbEntity
  8
0
  6
Continuous
 62
     7
370
    25
100
AcDbCircle
 10
17.6682886945
 20
175.1478425974
 30
0.0
 40
3.0
100
AcDbArc
 50
34.2417961379
 51
90.0
  0
ARC
  5
CE
330
1F
100
AcDbEntity
  8
0
  6
Continuous
 62
     7
370
    25
100
AcDbCircle
 10
17.6682886945
 20
99.7478425974
 30
0.0
 40
3.000000000000003
100
AcDbArc
 50
270.0
 51
325.7582038621
  0
ARC
  5
CF
330
1F
100
AcDbEntity
  8
0
  6
Continuous
 62
     7
370
    25
100
AcDbCircle
 10
-41.7186231169
 20
177.1478425974
 30
0.0
 40
1.000000000000028
100
AcDbArc
 50
90.0
 51
180.0
  0
ARC
  5
D0
330
1F
100
AcDbEntity
  8
0
  6
Continuous
 62
     7
370
    25
100
AcDbCircle
 10
-41.7186231169
 20
97.7478425974
 30
0.0
 40
1.000000000000014
100
AcDbArc
 50
180.0
 51
270.0
  0
ARC
  5
D1
330
1F
100
AcDbEntity
  8
0
  6
Continuous
 62
     7
370
    25
100
AcDbCircle
 10
-37.7186231169
 20
137.4478425974
 30
0.0
 40
70.00000000000001
100
AcDbArc
 50
325.7582038621
 51
0.0
  0
ARC
  5
D2
330
1F
100
AcDbEntity
  8
0
  6
Continuous
 62
     7
370
    25
100
AcDbCircle
 10
-37.7186231169
 20
137.4478425974
 30
0.0
 40
70.0
100
AcDbArc
 50
0.0
 51
34.2417961379
  0
LINE
  5
D3
330
1F
100
AcDbEntity
  8
0
  6
Continuous
 62
     7
370
    25
100
AcDbLine
 10
-25.7263347478
 20
178.1446608224
 30
0.0
 11
-25.9550516365
 21
191.2478425974
 31
0.0
  0
LINE
  5
D4
330
1F
100
AcDbEntity
  8
0
  6
Continuous
 62
     7
370
    25
100
AcDbLine
 10
-39.9550516365
 20
191.2478425974
 30
0.0
 11
-40.1837859839
 21
178.1436606076
 31
0.0
  0
LINE
  5
D5
330
1F
100
AcDbEntity
  8
0
  6
Continuous
 62
     7
370
    25
100
AcDbLine
 10
-40.183715906
 20
96.748009823
 30
0.0
 11
-39.9550516365
 21
83.6478425974
 31
0.0
  0
LINE
  5
D6
330
1F
100
AcDbEntity
  8
0
  6
Continuous
 62
     7
370
    25
100
AcDbLine
 10
-25.9550516365
 20
83.6478425974
 30
0.0
 11
-25.7263368318
 21
96.7509049783
 31
0.0
  0
SPLINE
  5
D7
330
1F
100
AcDbEntity
  8
0
  6
Continuous
 62
     7
370
    25
100
AcDbSpline
210
0.0
220
0.0
230
1.0
 70
     8
 71
     3
 72
    21
 73
    17
 74
     0
 42
0.00000001
 43
0.00000001
 40
0.0
 40
0.0
 40
0.0
 40
0.0
 40
0.0707239638848699
 40
0.1434787822512606
 40
0.2142092743929929
 40
0.2870365119842449
 40
0.3569589669056631
 40
0.4289383574378668
 40
0.4984234873306594
 40
0.5698794546731878
 40
0.6401902239798422
 40
0.7124888215936643
 40
0.7836660465930978
 40
0.8569226892022448
 40
0.927774880988256
 40
1.0
 40
1.0
 40
1.0
 40
1.0
 10
-27.8864779787142
 20
97.07651714337189
 30
0.0
 10
-28.18456825912059
 20
97.11233648626965
 30
0.0
 10
-28.78930854917655
 20
97.18500373252834
 30
0.0
 10
-29.84837530931939
 20
97.28120644235649
 30
0.0
 10
-30.99717178906014
 20
97.35480205936764
 30
0.0
 10
-32.19103625038471
 20
97.39580609353828
 30
0.0
 10
-33.41274359848326
 20
97.40046539027385
 30
0.0
 10
-34.60308652080096
 20
97.36872655442201
 30
0.0
 10
-35.75421641914814
 20
97.30406275349206
 30
0.0
 10
-36.81858850412078
 20
97.2147509799083
 30
0.0
 10
-37.78834572606908
 20
97.10881708577814
 30
0.0
 10
-38.621949247928
 20
96.99913634833368
 30
0.0
 10
-39.30743149739099
 20
96.89616950641398
 30
0.0
 10
-39.80462596622718
 20
96.81431753595749
 30
0.0
 10
-40.12411954274162
 20
96.75853546485905
 30
0.0
 10
-40.16301999510535
 20
96.75155379361448
 30
0.0
 10
-40.1826568598599
 20
96.74802946097414
 30
0.0
  0
SPLINE
  5
D8
330
1F
100
AcDbEntity
  8
0
  6
Continuous
 62
     7
370
    25
100
AcDbSpline
210
0.0
220
0.0
230
1.0
 70
     8
 71
     3
 72
    13
 73
     9
 74
     0
 42
0.00000001
 43
0.00000001
 40
0.0
 40
0.0
 40
0.0
 40
0.0
 40
0.0549059484243022
 40
0.2686229799459507
 40
0.4749556069991203
 40
0.6871671988716923
 40
0.8423857849549653
 40
1.0
 40
1.0
 40
1.0
 40
1.0
 10
-25.74553838283095
 20
96.75124465586865
 30
0.0
 10
-25.73985830441791
 20
96.75023577671293
 30
0.0
 10
-25.71206897314465
 20
96.74529991579084
 30
0.0
 10
-25.86445105543627
 20
96.77245625344696
 30
0.0
 10
-26.20542258334369
 20
96.8312453323876
 30
0.0
 10
-26.70090425294641
 20
96.91112955089976
 30
0.0
 10
-27.2687541666518
 20
96.99580188068789
 30
0.0
 10
-27.67952150879163
 20
97.04947504865616
 30
0.0
 10
-27.8864779787142
 20
97.07651714337189
 30
0.0
  0
SPLINE
  5
D9
330
1F
100
AcDbEntity
  8
0
  6
Continuous
 62
     7
370
    25
100
AcDbSpline
210
0.0
220
0.0
230
1.0
 70
     8
 71
     3
 72
    12
 73
     8
 74
     0
 42
0.00000001
 43
0.00000001
 40
0.0
 40
0.0
 40
0.0
 40
0.0
 40
0.2096145250116064
 40
0.4252620522321405
 40
0.6348910571036539
 40
0.850709182104943
 40
1.0
 40
1.0
 40
1.0
 40
1.0
 10
-27.8864779787142
 20
177.8191680514332
 30
0.0
 10
-27.61473923046081
 20
177.8551151966375
 30
0.0
 10
-27.06344070882053
 20
177.9280440966774
 30
0.0
 10
-26.44186836447893
 20
178.0256517084873
 30
0.0
 10
-25.99637268467505
 20
178.1000370887601
 30
0.0
 10
-25.75317936571997
 20
178.1430657160083
 30
0.0
 10
-25.74828065582719
 20
178.1439479348118
 30
0.0
 10
-25.74627760325684
 20
178.1443086686949
 30
0.0
  0
SPLINE
  5
DA
330
1F
100
AcDbEntity
  8
0
  6
Continuous
 62
     7
370
    25
100
AcDbSpline
210
0.0
220
0.0
230
1.0
 70
     8
 71
     3
 72
    22
 73
    18
 74
     0
 42
0.00000001
 43
0.00000001
 40
0.0
 40
0.0
 40
0.0
 40
0.0
 40
0.0400429296186488
 40
0.1098837500966552
 40
0.1817352067239264
 40
0.2518898396287984
 40
0.3240285970322475
 40
0.3950646323754561
 40
0.4681558782313794
 40
0.5392044798170438
 40
0.6123728630224121
 40
0.6823887756884738
 40
0.7544709282507153
 40
0.8239339781173409
 40
0.8953722616888073
 40
0.9472935890017606
 40
1.0
 40
1.0
 40
1.0
 40
1.0
 10
-40.15762782123484
 20
178.1432037069695
 30
0.0
 10
-40.16163667080157
 20
178.1439136683088
 30
0.0
 10
-40.17263754981218
 20
178.1458619077391
 30
0.0
 10
-39.96726569290765
 20
178.1094593850625
 30
0.0
 10
-39.57102582929213
 20
178.0422145215237
 30
0.0
 10
-38.97733142704518
 20
177.948538435704
 30
0.0
 10
-38.22182777323534
 20
177.8417643364491
 30
0.0
 10
-37.30658298344096
 20
177.7312280939747
 30
0.0
 10
-36.27145453791549
 20
177.6312815454734
 30
0.0
 10
-35.12964703406506
 20
177.5521695715886
 30
0.0
 10
-33.93992437194515
 20
177.5047222516907
 30
0.0
 10
-32.71628421548629
 20
177.4932729701632
 30
0.0
 10
-31.52011893112489
 20
177.5186518430866
 30
0.0
 10
-30.35722366648156
 20
177.5778872789067
 30
0.0
 10
-29.37220217159259
 20
177.6559097532158
 30
0.0
 10
-28.54168683546334
 20
177.7394997565544
 30
0.0
 10
-28.10597074265058
 20
177.7924794405255
 30
0.0
 10
-27.8864779787142
 20
177.8191680514332
 30
0.0
  0
LINE
  5
DB
330
1F
100
AcDbEntity
  8
0
  6
Continuous
 62
     7
370
    25
100
AcDbLine
 10
-42.7186231169
 20
177.1478425974
 30
0.0
 11
-42.7186231169
 21
97.7478425974
 31
0.0
  0
LINE
  5
DC
330
1F
100
AcDbEntity
  8
0
  6
Continuous
 62
     7
370
    25
100
AcDbLine
 10
-39.9550516365
 20
191.2478425974
 30
0.0
 11
-25.9550516365
 21
191.2478425974
 31
0.0
  0
LINE
  5
DD
330
1F
100
AcDbEntity
  8
0
  6
Continuous
 62
     7
370
    25
100
AcDbLine
 10
-39.9550516365
 20
83.6478425974
 30
0.0
 11
-25.9550516365
 21
83.6478425974
 31
0.0
  0
LINE
  5
DE
330
1F
100
AcDbEntity
  8
0
  6
Continuous
 62
     7
370
    25
100
AcDbLine
 10
-41.7186231169
 20
178.1478425974
 30
0.0
 11
-41.7186231169
 21
96.7478425974
 31
0.0
  0
LINE
  5
DF
330
1F
100
AcDbEntity
  8
0
  6
Continuous
 62
     7
370
    25
100
AcDbLine
 10
17.6682886945
 20
178.1478425974
 30
0.0
 11
17.6682886945
 21
96.7478425974
 31
0.0
  0
LINE
  5
E0
330
1F
100
AcDbEntity
  8
0
  6
Continuous
 62
     7
370
    25
100
AcDbLine
 10
20.1482996711
 20
176.8359022989
 30
0.0
 11
20.1482996711
 21
98.0597828959
 31
0.0
  0
SPLINE
  5
E1
330
1F
100
AcDbEntity
  8
0
  6
Continuous
 62
     7
370
    25
100
AcDbSpline
210
0.0
220
0.0
230
1.0
 70
     8
 71
     3
 72
    70
 73
    66
 74
     0
 42
0.00000001
 43
0.00000001
 40
0.0
 40
0.0
 40
0.0
 40
0.0
 40
0.0077789026469228
 40
0.0236512918039775
 40
0.0395503976553583
 40
0.0554876359202925
 40
0.071470645839775
 40
0.0875029886882076
 40
0.1035844176968344
 40
0.1197115843746192
 40
0.1358789823310453
 40
0.1520799249199428
 40
0.168307398332454
 40
0.1845547020700328
 40
0.200815856652586
 40
0.2170858062073571
 40
0.2333604666624511
 40
0.2496364475460165
 40
0.2659109988913482
 40
0.2821826542152384
 40
0.2984504611187248
 40
0.3147138694637887
 40
0.3309726369893512
 40
0.3472267525671403
 40
0.363476375531848
 40
0.3797217887929972
 40
0.3959633632991894
 40
0.4122015315928801
 40
0.4284367684911313
 40
0.4446695772557803
 40
0.4609004799244692
 40
0.4771300107390204
 40
0.4933587118230088
 40
0.5095871304263524
 40
0.525815791623695
 40
0.5420450899821907
 40
0.5582755796701878
 40
0.5745078149304711
 40
0.5907423480491077
 40
0.6069797261831152
 40
0.6232204864113032
 40
0.6394651482648829
 40
0.6557142028065418
 40
0.6719680970861148
 40
0.6882272125072161
 40
0.7044918353012283
 40
0.7207621169494307
 40
0.7370380220801233
 40
0.7533192612089201
 40
0.769605205887079
 40
0.785894784699353
 40
0.8021863605975136
 40
0.8184766536075696
 40
0.8347621675130146
 40
0.8510384205987592
 40
0.8672998896073241
 40
0.883540080284605
 40
0.8997517741087108
 40
0.9159275051684341
 40
0.9320602911405813
 40
0.9481445830753797
 40
0.9641773177538188
 40
0.9801588784690021
 40
0.9960937311425394
 40
0.9999999999999999
 40
0.9999999999999999
 40
0.9999999999999999
 40
0.9999999999999999
 10
64.3759953342776
 20
-2.576996128674201
 30
0.0
 10
64.52909522597625
 20
-2.462904711600343
 30
0.0
 10
64.9945863598901
 20
-2.116016529549285
 30
0.0
 10
65.7159128467047
 20
-1.451135483012469
 30
0.0
 10
66.5405164790399
 20
-0.5891513049351947
 30
0.0
 10
67.30606913576528
 20
0.3524687721503661
 30
0.0
 10
68.01435248881711
 20
1.366510971787631
 30
0.0
 10
68.66265797244374
 20
2.45236502120785
 30
0.0
 10
69.24953726621727
 20
3.6073032179074
 30
0.0
 10
69.77331984564135
 20
4.828796555795052
 30
0.0
 10
70.23257765526341
 20
6.113898343160447
 30
0.0
 10
70.62605409003369
 20
7.459446593596096
 30
0.0
 10
70.95271843934991
 20
8.86206325852352
 30
0.0
 10
71.21176681887239
 20
10.31821263168492
 30
0.0
 10
71.4026210976102
 20
11.82423865006607
 30
0.0
 10
71.52491738483401
 20
13.37639733638575
 30
0.0
 10
71.57849154348366
 20
14.97087127884973
 30
0.0
 10
71.56336623077436
 20
16.60377703517177
 30
0.0
 10
71.47973977453687
 20
18.27119252996045
 30
0.0
 10
71.32797270661942
 20
19.96916971889691
 30
0.0
 10
71.10857544550514
 20
21.69374384515505
 30
0.0
 10
70.82220307553409
 20
23.44091415363539
 30
0.0
 10
70.4696514624446
 20
25.20664672956377
 30
0.0
 10
70.05185440109048
 20
26.98687826371326
 30
0.0
 10
69.56988136542354
 20
28.77752083829223
 30
0.0
 10
69.02493552165464
 20
30.5744676981605
 30
0.0
 10
68.41835175231789
 20
32.37359989943752
 30
0.0
 10
67.7515945128547
 20
34.17079369639492
 30
0.0
 10
67.02625540099623
 20
35.96192851994089
 30
0.0
 10
66.24405036368792
 20
37.74289540655371
 30
0.0
 10
65.40681649892569
 20
39.50960574809917
 30
0.0
 10
64.51650843334438
 20
41.25800024638458
 30
0.0
 10
63.57519427299239
 20
42.98405796943072
 30
0.0
 10
62.58505165672962
 20
44.68380452529438
 30
0.0
 10
61.54836584933017
 20
46.35331659501095
 30
0.0
 10
60.46752175809805
 20
47.98873673776669
 30
0.0
 10
59.34499758356441
 20
49.58628304530949
 30
0.0
 10
58.1833553798847
 20
51.14226158123608
 30
0.0
 10
56.9852382492728
 20
52.65306896379252
 30
0.0
 10
55.75336395890024
 20
54.11519996752914
 30
0.0
 10
54.49051841298082
 20
55.52525466120404
 30
0.0
 10
53.19954906521716
 20
56.87994501931739
 30
0.0
 10
51.88335837675768
 20
58.17610095133131
 30
0.0
 10
50.54489745217514
 20
59.41067570091364
 30
0.0
 10
49.18716001954771
 20
60.58075058353162
 30
0.0
 10
47.81317696073675
 20
61.68353905815304
 30
0.0
 10
46.4260116428193
 20
62.71639017361736
 30
0.0
 10
45.02875634676867
 20
63.67679150016867
 30
0.0
 10
43.62453012667605
 20
64.56237176003762
 30
0.0
 10
42.21647844203398
 20
65.37090351982148
 30
0.0
 10
40.80777487233961
 20
66.10030649781172
 30
0.0
 10
39.40165211327039
 20
66.74863983208282
 30
0.0
 10
38.00138954863654
 20
67.31412527158578
 30
0.0
 10
36.61032019701813
 20
67.7951614858362
 30
0.0
 10
35.23181126222317
 20
68.19034848871375
 30
0.0
 10
33.86928517346299
 20
68.4985038128678
 30
0.0
 10
32.52621823543172
 20
68.7186865342347
 30
0.0
 10
31.20611510023697
 20
68.85025046451693
 30
0.0
 10
29.91251720290155
 20
68.89280264067763
 30
0.0
 10
28.6488160682986
 20
68.8465043133532
 30
0.0
 10
27.41872122150642
 20
68.7110554453915
 30
0.0
 10
26.22424221112121
 20
68.48948974065271
 30
0.0
 10
25.07289064251889
 20
68.17398799558025
 30
0.0
 10
24.23209955860717
 20
67.89256917604244
 30
0.0
 10
23.79007429364238
 20
67.68978701332092
 30
0.0
 10
23.70304949899834
 20
67.64986378388807
 30
0.0
  0
LINE
  5
E2
330
1F
100
AcDbEntity
  8
0
  6
Continuous
 62
     7
370
    25
100
AcDbLine
 10
20.8530507318
 20
-27.8539152912
 30
0.0
 11
34.7780148232
 21
-19.81520463
 31
0.0
  0
LINE
  5
E3
330
1F
100
AcDbEntity
  8
0
  6
Continuous
 62
     7
370
    25
100
AcDbLine
 10
43.322474813
 20
-14.8825928715
 30
0.0
 11
62.8459387874
 21
-3.6119370218
 31
0.0
  0
LINE
  5
E4
330
1F
100
AcDbEntity
  8
0
  6
Continuous
 62
     7
370
    25
100
AcDbLine
 10
22.1492463691
 20
66.884440376
 30
0.0
 11
-19.8436416864
 21
42.6424621066
 31
0.0
  0
LINE
  5
E5
330
1F
100
AcDbEntity
  8
0
  6
Continuous
 62
     7
370
    25
100
AcDbLine
 10
29.0672062757
 20
-4.9687677076
 30
0.0
 11
29.3013447928
 21
-15.9208379173
 31
0.0
  0
LINE
  5
E6
330
1F
100
AcDbEntity
  8
0
  6
Continuous
 62
     7
370
    25
100
AcDbLine
 10
43.3002787213
 20
-15.9208379173
 30
0.0
 11
43.534691885
 21
-4.9559208273
 31
0.0
  0
SPLINE
  5
E7
330
1F
100
AcDbEntity
  8
0
  6
Continuous
 62
     7
370
    25
100
AcDbSpline
210
0.0
220
0.0
230
1.0
 70
     8
 71
     3
 72
    25
 73
    21
 74
     0
 42
0.00000001
 43
0.00000001
 40
0.0
 40
0.0
 40
0.0
 40
0.0
 40
0.011982772981494
 40
0.0699023879129211
 40
0.1278105453219086
 40
0.1858162177250517
 40
0.2440352607821527
 40
0.3025679170831906
 40
0.361492541271544
 40
0.4208610465155077
 40
0.4806966641252708
 40
0.5409944549774003
 40
0.6017246318910006
 40
0.6628382148068026
 40
0.7242740421354075
 40
0.7859659206767835
 40
0.8478488172071278
 40
0.9098634016226719
 40
0.9719587494421993
 40
1.0
 40
1.0
 40
1.0
 40
1.0
 10
-19.77046764135999
 20
42.67543966805672
 30
0.0
 10
-19.84454000114336
 20
42.63597869823005
 30
0.0
 10
-20.27664656238745
 20
42.40578022709958
 30
0.0
 10
-21.02040302343006
 20
41.90399114967261
 30
0.0
 10
-21.99489475559972
 20
41.16906581892498
 30
0.0
 10
-22.91132355589515
 20
40.34946275319894
 30
0.0
 10
-23.77322247042743
 20
39.45580749821274
 30
0.0
 10
-24.57763251220334
 20
38.48700024559576
 30
0.0
 10
-25.32321917955853
 20
37.44509888104997
 30
0.0
 10
-26.00805029831065
 20
36.33149833667318
 30
0.0
 10
-26.63023284404672
 20
35.14813116929821
 30
0.0
 10
-27.18782375586921
 20
33.89728281991843
 30
0.0
 10
-27.67897219479885
 20
32.58172725489067
 30
0.0
 10
-28.10199909904545
 20
31.20470042420251
 30
0.0
 10
-28.45552005557996
 20
29.76986635300261
 30
0.0
 10
-28.73837564584104
 20
28.28116592966247
 30
0.0
 10
-28.95013087261389
 20
26.74292508603795
 30
0.0
 10
-29.0892878299671
 20
25.15894682731963
 30
0.0
 10
-29.14699250932688
 20
23.83264217494874
 30
0.0
 10
-29.15174320082965
 20
23.03249112922213
 30
0.0
 10
-29.15322112803292
 20
22.7835663155368
 30
0.0
  0
SPLINE
  5
E8
330
1F
100
AcDbEntity
  8
0
  6
Continuous
 62
     7
370
    25
100
AcDbSpline
210
0.0
220
0.0
230
1.0
 70
     8
 71
     3
 72
    36
 73
    32
 74
     0
 42
0.00000001
 43
0.00000001
 40
0.0
 40
0.0
 40
0.0
 40
0.0
 40
0.0039222597955435
 40
0.040606372462822
 40
0.0773113807668568
 40
0.1140410525135679
 40
0.1507989845787475
 40
0.1875885018114065
 40
0.2244125139278484
 40
0.2612733173102584
 40
0.2981723260904197
 40
0.3351097148678859
 40
0.3720839549713145
 40
0.4090912292118288
 40
0.4461247195987857
 40
0.4831737827474679
 40
0.5202173526911221
 40
0.5572319973076609
 40
0.5941886136092183
 40
0.6310519897131781
 40
0.6677818643859047
 40
0.7043351871579792
 40
0.7406696514387993
 40
0.7767482374636702
 40
0.8125441223750777
 40
0.8480450605930667
 40
0.8832563586760761
 40
0.9182018833100549
 40
0.9529230071817782
 40
0.9874758076045849
 40
1.0
 40
1.0
 40
1.0
 40
1.0
 10
-15.85721961205494
 20
-12.56564866280071
 30
0.0
 10
-15.81553448464247
 20
-12.62086396374431
 30
0.0
 10
-15.38397668426578
 20
-13.19249694897141
 30
0.0
 10
-14.52678310999007
 20
-14.23757020357711
 30
0.0
 10
-13.28608974101002
 20
-15.69337380319579
 30
0.0
 10
-12.00908363360534
 20
-17.09191857191833
 30
0.0
 10
-10.70337067379528
 20
-18.43584636509772
 30
0.0
 10
-9.370308421036155
 20
-19.72040577664044
 30
0.0
 10
-8.012974123033725
 20
-20.94294448273208
 30
0.0
 10
-6.63402463334806
 20
-22.10036183438483
 30
0.0
 10
-5.236271167411294
 20
-23.18978948314833
 30
0.0
 10
-3.822530146117689
 20
-24.20840466360835
 30
0.0
 10
-2.395674045046474
 20
-25.15347572322321
 30
0.0
 10
-0.9586356666704716
 20
-26.02234626974675
 30
0.0
 10
0.485566895657534
 20
-26.81243895962695
 30
0.0
 10
1.933727892116259
 20
-27.52122401417105
 30
0.0
 10
3.382460430919648
 20
-28.14627605435949
 30
0.0
 10
4.82816807809509
 20
-28.68531691722286
 30
0.0
 10
6.267089622378441
 20
-29.13628861583795
 30
0.0
 10
7.695244253413367
 20
-29.49739768094024
 30
0.0
 10
9.108440196240702
 20
-29.76719445886525
 30
0.0
 10
10.50232735508303
 20
-29.94466206964352
 30
0.0
 10
11.87248512455758
 20
-30.02928899875245
 30
0.0
 10
13.2145538778126
 20
-30.02113335646245
 30
0.0
 10
14.52433481459139
 20
-29.92076361725048
 30
0.0
 10
15.79804607776132
 20
-29.72943327094159
 30
0.0
 10
17.03192767081391
 20
-29.44814838201781
 30
0.0
 10
18.22406995417065
 20
-29.08060861968995
 30
0.0
 10
19.36779582126214
 20
-28.62172195269792
 30
0.0
 10
20.24175941199583
 20
-28.20985137739848
 30
0.0
 10
20.71666218880251
 20
-27.92324217765895
 30
0.0
 10
20.84300360081262
 20
-27.84699370584822
 30
0.0
  0
SPLINE
  5
E9
330
1F
100
AcDbEntity
  8
0
  6
Continuous
 62
     7
370
    25
100
AcDbSpline
210
0.0
220
0.0
230
1.0
 70
     8
 71
     3
 72
    18
 73
    14
 74
     0
 42
0.00000001
 43
0.00000001
 40
0.0
 40
0.0
 40
0.0
 40
0.0
 40
0.0540270862640295
 40
0.1557384083871044
 40
0.2573904130783115
 40
0.3589823420794348
 40
0.4604995368918546
 40
0.5619343300936761
 40
0.6632843659773715
 40
0.7645512395082203
 40
0.8657394257572842
 40
0.9668554601668635
 40
1.0
 40
1.0
 40
1.0
 40
1.0
 10
-29.15322112803292
 20
22.7835663155368
 30
0.0
 10
-29.15119356105134
 20
22.48870876128701
 30
0.0
 10
-29.14534889911513
 20
21.63875276004418
 30
0.0
 10
-29.08093033738207
 20
20.20887094025392
 30
0.0
 10
-28.93768769930642
 20
18.48789274962405
 30
0.0
 10
-28.72376725778206
 20
16.74254570946528
 30
0.0
 10
-28.44129789518038
 20
14.97736337973872
 30
0.0
 10
-28.09110461450011
 20
13.1961939491584
 30
0.0
 10
-27.67404632290266
 20
11.40311133127172
 30
0.0
 10
-27.1928204158569
 20
9.601982615391481
 30
0.0
 10
-26.64337605562887
 20
7.797206335486718
 30
0.0
 10
-26.18081523182196
 20
6.395499495000807
 30
0.0
 10
-25.88153785232328
 20
5.598364303526259
 30
0.0
 10
-25.80765606623751
 20
5.401577724478426
 30
0.0
  0
LINE
  5
EA
330
1F
100
AcDbEntity
  8
0
  6
Continuous
 62
     7
370
    25
100
AcDbLine
 10
43.4583535752
 20
64.6445763767
 30
0.0
 11
43.3002787213
 21
72.0386904264
 31
0.0
  0
LINE
  5
EB
330
1F
100
AcDbEntity
  8
0
  6
Continuous
 62
     7
370
    25
100
AcDbLine
 10
29.3013447928
 20
72.0386904264
 30
0.0
 11
29.2332369222
 21
68.8528746547
 31
0.0
  0
LWPOLYLINE
  5
EC
330
1F
100
AcDbEntity
  8
0
  6
Continuous
 62
     7
370
    25
100
AcDbPolyline
 90
      122
 70
   128
 43
0.0
 10
15.1325601463
 20
48.2501567527
 10
15.1703989084
 20
49.9108618565
 10
15.2838131882
 20
51.523402288
 10
15.4724972407
 20
53.0834309235
 10
15.7359424071
 20
54.5867422016
 10
16.0734384859
 20
56.0292834607
 10
16.4840756472
 20
57.4071658647
 10
16.9667468859
 20
58.7166748863
 10
17.5201510057
 20
59.9542803207
 10
18.1427961269
 20
61.1166458023
 10
18.8330037083
 20
62.2006377994
 10
19.5889130723
 20
63.2033340612
 10
20.4084864209
 20
64.1220314958
 10
21.2895143293
 20
64.9542534575
 10
22.229621702
 20
65.6977564228
 10
23.2262741757
 20
66.3505360393
 10
24.2767849516
 20
66.9108325285
 10
25.3783220383
 20
67.3771354302
 10
26.5279158865
 20
67.7481876742
 10
27.7224673947
 20
68.0229889691
 10
28.9587562629
 20
68.2007984994
 10
30.2334496752
 20
68.281136922
 10
31.5431112832
 20
68.2637876586
 10
32.884210471
 20
68.1487974798
 10
34.2531318722
 20
67.9364763789
 10
35.6461851167
 20
67.6273967359
 10
37.0596147793
 20
67.222391775
 10
38.4896105035
 20
66.7225533178
 10
39.9323172736
 20
66.1292288406
 10
41.3838458073
 20
65.4440178412
 10
42.8402830402
 20
64.6687675273
 10
44.2977026751
 20
63.8055678367
 10
45.7521757663
 20
62.8567458032
 10
47.1997813115
 20
61.8248592832
 10
48.6366168221
 20
60.7126900603
 10
50.0588088435
 20
59.5232363462
 10
51.4625233976
 20
58.2597046977
 10
52.843976318
 20
56.9255013728
 10
54.199443452
 20
55.5242231477
 10
55.5252706997
 20
54.0596476209
 10
56.8178838653
 20
52.535723029
 10
58.0737982923
 20
50.9565576032
 10
59.2896282574
 20
49.3264084944
 10
60.4620960979
 20
47.6496702964
 10
61.5880410479
 20
45.9308631989
 10
62.6644277589
 20
44.174620802
 10
63.6883544825
 20
42.3856776246
 10
64.6570608934
 20
40.5688563413
 10
65.5679355303
 20
38.729054781
 10
66.4185228362
 20
36.8712327235
 10
67.2065297782
 20
35.0003985287
 10
67.9298320289
 20
33.1215956346
 10
68.5864796932
 20
31.2398889618
 10
69.1747025652
 20
29.3603512588
 10
69.6929149
 20
27.4880494269
 10
70.1397196887
 20
25.6280308609
 10
70.5139124247
 20
23.7853098419
 10
70.8144843505
 20
21.96485402
 10
71.0406251772
 20
20.1715710223
 10
71.1917252693
 20
18.4102952226
 10
71.2673772876
 20
16.6857747092
 10
71.2673772876
 20
15.0026584845
 10
71.1917252693
 20
13.3654839322
 10
71.0406251772
 20
11.7786645855
 10
70.8144843505
 20
10.2464782288
 10
70.5139124247
 20
8.7730553656
 10
70.1397196887
 20
7.3623680834
 10
69.6929149
 20
6.0182193459
 10
69.1747025652
 20
4.7442327402
 10
68.5864796932
 20
3.5438427091
 10
67.9298320289
 20
2.4202852919
 10
67.2065297782
 20
1.3765894008
 10
66.4185228362
 20
0.4155686552
 10
65.5679355303
 20
-0.4601862027
 10
64.6570608934
 20
-1.2483142927
 10
63.6883544825
 20
-1.9466909608
 10
62.6644277589
 20
-2.5534335069
 10
61.5880410479
 20
-3.0669062605
 10
60.4620960979
 20
-3.4857249898
 10
59.2896282574
 20
-3.8087606335
 10
58.0737982923
 20
-4.0351423446
 10
56.8178838653
 20
-4.1642598381
 10
55.5252706997
 20
-4.195765036
 10
54.199443452
 20
-4.1295730059
 10
52.843976318
 20
-3.9658621899
 10
51.4625233976
 20
-3.7050739232
 10
50.0588088435
 20
-3.347911245
 10
48.6366168221
 20
-2.8953370028
 10
47.1997813115
 20
-2.3485712566
 10
45.7521757663
 20
-1.7090879902
 10
44.2977026751
 20
-0.9786111375
 10
42.8402830402
 20
-0.1591099349
 10
41.3838458073
 20
0.7472063872
 10
39.9323172736
 20
1.7378945602
 10
38.4896105035
 20
2.8102838641
 10
37.0596147793
 20
3.9614833268
 10
35.6461851167
 20
5.188389518
 10
34.2531318722
 20
6.4876949157
 10
32.884210471
 20
7.8558968222
 10
31.5431112832
 20
9.2893068071
 10
30.2334496752
 20
10.7840606504
 10
28.9587562629
 20
12.33612876
 10
27.7224673947
 20
13.9413270348
 10
26.5279158865
 20
15.5953281439
 10
25.3783220383
 20
17.2936731929
 10
24.2767849516
 20
19.0317837437
 10
23.2262741757
 20
20.8049741576
 10
22.229621702
 20
22.6084642266
 10
21.2895143293
 20
24.4373920606
 10
20.4084864209
 20
26.2868271932
 10
19.5889130723
 20
28.1517838745
 10
18.8330037083
 20
30.0272345109
 10
18.1427961269
 20
31.9081232191
 10
17.5201510057
 20
33.7893794556
 10
16.9667468859
 20
35.6659316863
 10
16.4840756472
 20
37.532721058
 10
16.0734384859
 20
39.3847150368
 10
15.7359424071
 20
41.2169209742
 10
15.4724972407
 20
43.024399567
 10
15.2838131882
 20
44.8022781724
 10
15.1703989084
 20
46.5457639442
 10
15.1325601463
 20
48.2501567527
  0
ARC
  5
ED
330
1F
100
AcDbEntity
  8
0
  6
Continuous
 62
     7
370
    25
100
AcDbCircle
 10
28.9579500721
 20
55.0899848442
 30
0.0
 40
13.61853361603817
100
AcDbArc
 50
113.0448140933
 51
127.3854330935
  0
ARC
  5
EE
330
1F
100
AcDbEntity
  8
0
  6
Continuous
 62
     7
370
    25
100
AcDbCircle
 10
56.0380814359
 20
8.1809998875
 30
0.0
 40
13.61681471923985
100
AcDbArc
 50
292.8215964983
 51
307.4139010351
  0
SPLINE
  5
EF
330
1F
100
AcDbEntity
  8
0
  6
Continuous
 62
     7
370
    25
100
AcDbSpline
210
0.0
220
0.0
230
1.0
 70
     8
 71
     3
 72
    27
 73
    23
 74
     0
 42
0.00000001
 43
0.00000001
 40
0.0
 40
0.0
 40
0.0
 40
0.0
 40
0.0386767772507929
 40
0.0922182826614577
 40
0.1457565833220446
 40
0.1990666722946265
 40
0.2523744955649423
 40
0.3050019775306641
 40
0.3576316280768169
 40
0.4102321014712321
 40
0.4628355910438205
 40
0.5160980143235194
 40
0.5693593357050375
 40
0.6229211936877396
 40
0.676478679682893
 40
0.7293974371105247
 40
0.7823152063629802
 40
0.8345686055485961
 40
0.8868255645976152
 40
0.9393846414120346
 40
0.9919464458936513
 40
1.0
 40
1.0
 40
1.0
 40
1.0
 10
43.51439888735882
 20
-4.955933617834626
 30
0.0
 10
43.51530549750412
 20
-4.807336864033351
 30
0.0
 10
43.51746715720244
 20
-4.45303284961756
 30
0.0
 10
43.27966544733403
 20
-3.897629390077671
 30
0.0
 10
42.84859932610289
 20
-3.302439196524291
 30
0.0
 10
42.21988535906793
 20
-2.73558834006957
 30
0.0
 10
41.43176177596989
 20
-2.211514673825989
 30
0.0
 10
40.49953171559479
 20
-1.743864041028238
 30
0.0
 10
39.45825560428286
 20
-1.344731860889237
 30
0.0
 10
38.32925212926072
 20
-1.028707187398975
 30
0.0
 10
37.14184038706117
 20
-0.8056030800641725
 30
0.0
 10
35.92579539264949
 20
-0.6929950325400662
 30
0.0
 10
34.71220426025083
 20
-0.6986783164308064
 30
0.0
 10
33.54087083137839
 20
-0.8368934883761087
 30
0.0
 10
32.44747487960214
 20
-1.104603738438157
 30
0.0
 10
31.46920122282945
 20
-1.503567005404122
 30
0.0
 10
30.63086248261982
 20
-2.014532609668891
 30
0.0
 10
29.95872852906471
 20
-2.6277988037215
 30
0.0
 10
29.45435390113241
 20
-3.318393044043754
 30
0.0
 10
29.1608759714804
 20
-4.067638864735206
 30
0.0
 10
29.03691931796233
 20
-4.629516701430449
 30
0.0
 10
29.07535600668191
 20
-4.928327437200497
 30
0.0
 10
29.08046283042235
 20
-4.968028405472253
 30
0.0
  0
LWPOLYLINE
  5
F0
330
1F
100
AcDbEntity
  8
0
  6
Continuous
 62
     7
370
    25
100
AcDbPolyline
 90
      110
 70
   128
 43
0.0
 10
20.6479930396
 20
45.0661651166
 10
20.6854585946
 20
46.545193612
 10
20.7977308027
 20
47.9760521144
 10
20.984436707
 20
49.3539874558
 10
21.2449560892
 20
50.6744222736
 10
21.5784235302
 20
51.932970216
 10
21.9837312846
 20
53.1254505135
 10
22.4595329609
 20
54.2479018663
 10
23.0042479937
 20
55.296595604
 10
23.6160668944
 20
56.2680480714
 10
24.2929572623
 20
57.1590322011
 10
25.0326705355
 20
57.9665882334
 10
25.832749461
 20
58.6880335485
 10
26.690536257
 20
59.3209715775
 10
27.6031814421
 20
59.8632997639
 10
28.5676533007
 20
60.3132165482
 10
29.5807479544
 20
60.6692273518
 10
30.6391000045
 20
60.9301495428
 10
31.739193712
 20
61.0951163639
 10
32.8773746762
 20
61.1635798119
 10
34.0498619745
 20
61.135312458
 10
35.2527607218
 20
61.0104082037
 10
36.4820750097
 20
60.7892819682
 10
37.7337211795
 20
60.4726683108
 10
39.0035413887
 20
60.0616189901
 10
40.2873174222
 20
59.5574994706
 10
41.580784705
 20
58.9619843866
 10
42.8796464691
 20
58.2770519795
 10
44.1795880261
 20
57.5049775258
 10
45.4762911011
 20
56.6483257791
 10
46.7654481767
 20
55.7099424504
 10
48.0427768029
 20
54.6929447548
 10
49.3040338223
 20
53.6007110563
 10
50.545029466
 20
52.4368696455
 10
51.7616412713
 20
51.2052866864
 10
52.9498277761
 20
49.9100533738
 10
54.1056419443
 20
48.5554723425
 10
55.2252442775
 20
47.1460433745
 10
56.3049155694
 20
45.6864484511
 10
57.3410692604
 20
44.1815361997
 10
58.3302633523
 20
42.6363057877
 10
59.2692118417
 20
41.0558903149
 10
60.1547956362
 20
39.4455397627
 10
60.9840729154
 20
37.8106035536
 10
61.7542889037
 20
36.1565127814
 10
62.462885021
 20
34.4887621691
 10
63.1075073822
 20
32.8128918167
 10
63.6860146167
 20
31.1344687969
 10
64.1964849817
 20
29.4590686623
 10
64.6372227458
 20
27.7922569234
 10
65.0067638227
 20
26.1395705614
 10
65.3038806339
 20
24.506499634
 10
65.5275861874
 20
22.8984690388
 10
65.6771373558
 20
21.3208204916
 10
65.7520373451
 20
19.7787947823
 10
65.7520373451
 20
18.2775143651
 10
65.6771373558
 20
16.8219663426
 10
65.5275861874
 20
15.4169858991
 10
65.3038806339
 20
14.0672402382
 10
65.0067638227
 20
12.7772130792
 10
64.6372227458
 20
11.5511897628
 10
64.1964849817
 20
10.3932430149
 10
63.6860146167
 20
9.3072194184
 10
63.1075073822
 20
8.2967266343
 10
62.462885021
 20
7.365121418
 10
61.7542889037
 20
6.5154984684
 10
60.9840729154
 20
5.7506801476
 10
60.1547956362
 20
5.0732071049
 10
59.2692118417
 20
4.4853298379
 10
58.3302633523
 20
3.9890012155
 10
57.3410692604
 20
3.5858699917
 10
56.3049155694
 20
3.2772753277
 10
55.2252442775
 20
3.064242344
 10
54.1056419443
 20
2.9474787147
 10
52.9498277761
 20
2.927372317
 10
51.7616412713
 20
3.0039899422
 10
50.545029466
 20
3.1770770743
 10
49.3040338223
 20
3.4460587352
 10
48.0427768029
 20
3.8100413949
 10
46.7654481767
 20
4.2678159396
 10
45.4762911011
 20
4.8178616883
 10
44.1795880261
 20
5.4583514444
 10
42.8796464691
 20
6.1871575653
 10
41.580784705
 20
7.0018590303
 10
40.2873174222
 20
7.8997494832
 10
39.0035413887
 20
8.8778462221
 10
37.7337211795
 20
9.932900108
 10
36.4820750097
 20
11.061406358
 10
35.2527607218
 20
12.2596161879
 10
34.0498619745
 20
13.523549265
 10
32.8773746762
 20
14.8490069309
 10
31.739193712
 20
16.2315861484
 10
30.6391000045
 20
17.6666941285
 10
29.5807479544
 20
19.1495635867
 10
28.5676533007
 20
20.6752685798
 10
27.6031814421
 20
22.2387408693
 10
26.690536257
 20
23.8347867574
 10
25.832749461
 20
25.4581043403
 10
25.0326705355
 20
27.1033011201
 10
24.2929572623
 20
28.7649119186
 10
23.6160668944
 20
30.4374170319
 10
23.0042479937
 20
32.1152605662
 10
22.4595329609
 20
33.7928688939
 10
21.9837312846
 20
35.4646691689
 10
21.5784235302
 20
37.1251078388
 10
21.2449560892
 20
38.7686690934
 10
20.984436707
 20
40.3898931874
 10
20.7977308027
 20
41.9833945775
 10
20.6854585946
 20
43.5438798122
 10
20.6479930396
 20
45.0661651166
  0
LWPOLYLINE
  5
F1
330
1F
100
AcDbEntity
  8
0
  6
Continuous
 62
     7
370
    25
100
AcDbPolyline
 90
       52
 70
   128
 43
0.0
 10
31.3510642887
 20
-18.7283978163
 10
30.7803148462
 20
-18.3555954747
 10
30.2932505095
 20
-17.9451287349
 10
29.8972546776
 20
-17.5032198543
 10
29.5983302436
 20
-17.0365677209
 10
29.4010085972
 20
-16.5522463056
 10
29.3082809334
 20
-16.0575974271
 10
29.3215529091
 20
-15.5601194585
 10
29.4406233347
 20
-15.0673536584
 10
29.6636872239
 20
-14.5867698542
 10
29.9873631555
 20
-14.1256532064
 10
30.4067445323
 20
-13.6909937735
 10
30.9154739601
 20
-13.2893805492
 10
31.5058396195
 20
-12.9269015808
 10
32.1688921687
 20
-12.6090516799
 10
32.8945804071
 20
-12.340649127
 10
33.6719036405
 20
-12.1257626312
 10
34.4890784413
 20
-11.9676496528
 10
35.3337172724
 20
-11.8687070232
 10
36.19301627
 20
-11.830434612
 10
37.0539493373
 20
-11.8534125899
 10
37.9034656067
 20
-11.9372926341
 10
38.7286872773
 20
-12.0808032087
 10
39.5171048299
 20
-12.2817688396
 10
40.256766658
 20
-12.5371430928
 10
40.9364602423
 20
-12.8430547549
 10
41.5458821208
 20
-13.1948665168
 10
42.0757940792
 20
-13.587245271
 10
42.5181631923
 20
-14.0142429555
 10
42.8662835952
 20
-14.4693867206
 10
43.1148781376
 20
-14.9457770508
 10
43.2601783794
 20
-15.4361923543
 10
43.2999817173
 20
-15.933198435
 10
43.2336847732
 20
-16.4292611873
 10
43.0622925411
 20
-16.9168608056
 10
42.7884031525
 20
-17.3886057767
 10
42.4161684916
 20
-17.8373449278
 10
41.9512312561
 20
-18.2562758306
 10
41.4006394208
 20
-18.6390479197
 10
40.7727393966
 20
-18.9798587605
 10
40.0770495078
 20
-19.2735420079
 10
39.324115704
 20
-19.5156457235
 10
38.5253516941
 20
-19.7024998615
 10
37.6928659264
 20
-19.8312719037
 10
36.8392780364
 20
-19.9000097973
 10
35.9775275465
 20
-19.9076715458
 10
35.1206777157
 20
-19.8541410049
 10
34.281717514
 20
-19.7402296431
 10
33.4733647229
 20
-19.5676642405
 10
32.7078731467
 20
-19.3390607127
 10
31.9968468574
 20
-19.0578844561
 10
31.3510642887
 20
-18.7283978163
  0
LWPOLYLINE
  5
F2
330
1F
100
AcDbEntity
  8
0
  6
Continuous
 62
     7
370
    25
100
AcDbPolyline
 90
       43
 70
   128
 43
0.0
 10
32.9420545464
 20
-17.8099386905
 10
32.4789723031
 20
-17.4992936324
 10
32.1012636379
 20
-17.1522745023
 10
31.8173659381
 20
-16.776633134
 10
31.6336210092
 20
-16.3807607351
 10
31.5541334093
 20
-15.9735004406
 10
31.58067876
 20
-15.5639497727
 10
31.7126640822
 20
-15.1612574165
 10
31.9471410416
 20
-14.7744188538
 10
32.2788718107
 20
-14.4120754189
 10
32.7004460721
 20
-14.0823212653
 10
33.2024465535
 20
-13.792522556
 10
33.7736593936
 20
-13.5491529151
 10
34.4013246415
 20
-13.3576488184
 10
35.0714212928
 20
-13.222288151
 10
35.7689804955
 20
-13.1460946463
 10
36.4784199298
 20
-13.1307703415
 10
37.1838918911
 20
-13.1766575562
 10
37.8696373013
 20
-13.2827312458
 10
38.5203377413
 20
-13.4466218994
 10
39.1214576385
 20
-13.6646684706
 10
39.6595689677
 20
-13.9320001593
 10
40.1226512109
 20
-14.2426452174
 10
40.5003598762
 20
-14.5896643475
 10
40.784257576
 20
-14.9653057158
 10
40.9680025049
 20
-15.3611781147
 10
41.0474901048
 20
-15.7684384092
 10
41.020944754
 20
-16.1779890771
 10
40.8889594319
 20
-16.5806814333
 10
40.6544824724
 20
-16.967519996
 10
40.3227517034
 20
-17.3298634309
 10
39.901177442
 20
-17.6596175845
 10
39.3991769606
 20
-17.9494162938
 10
38.8279641205
 20
-18.1927859347
 10
38.2002988725
 20
-18.3842900314
 10
37.5302022213
 20
-18.5196506988
 10
36.8326430185
 20
-18.5958442035
 10
36.1232035842
 20
-18.6111685083
 10
35.417731623
 20
-18.5652812936
 10
34.7319862127
 20
-18.459207604
 10
34.0812857727
 20
-18.2953169504
 10
33.4801658756
 20
-18.0772703792
 10
32.9420545464
 20
-17.8099386905
  0
ARC
  5
F3
330
1F
100
AcDbEntity
  8
0
  6
Continuous
 62
     7
370
    25
100
AcDbCircle
 10
37.2022603406
 20
28.5686274915
 30
0.0
 40
67.13804002062608
100
AcDbArc
 50
200.1609825514
 51
217.7676157904
  0
LWPOLYLINE
  5
F4
330
1F
100
AcDbEntity
  8
0
  6
Continuous
 62
     7
370
    25
100
AcDbPolyline
 90
       27
 70
   128
 43
0.0
 10
29.3013447928
 20
72.0386904264
 10
29.3215529091
 20
72.2996719005
 10
29.4406233347
 20
72.7924377005
 10
29.6636872239
 20
73.2730215047
 10
29.9873631555
 20
73.7341381525
 10
30.4067445323
 20
74.1687975854
 10
30.9154739601
 20
74.5704108097
 10
31.5058396195
 20
74.9328897781
 10
32.1688921687
 20
75.250739679
 10
32.8945804071
 20
75.5191422319
 10
33.6719036405
 20
75.7340287277
 10
34.4890784413
 20
75.8921417061
 10
35.3337172724
 20
75.9910843357
 10
36.19301627
 20
76.0293567469
 10
37.0539493373
 20
76.006378769
 10
37.9034656067
 20
75.9224987248
 10
38.7286872773
 20
75.7789881502
 10
39.5171048299
 20
75.5780225193
 10
40.256766658
 20
75.3226482661
 10
40.9364602423
 20
75.0167366041
 10
41.5458821208
 20
74.6649248421
 10
42.0757940792
 20
74.2725460879
 10
42.5181631923
 20
73.8455484034
 10
42.8662835952
 20
73.3904046383
 10
43.1148781376
 20
72.9140143081
 10
43.2601783794
 20
72.4235990046
 10
43.3002787213
 20
72.0386904264
  0
LWPOLYLINE
  5
F5
330
1F
100
AcDbEntity
  8
0
  6
Continuous
 62
     7
370
    25
100
AcDbPolyline
 90
       15
 70
   128
 43
0.0
 10
13.718346584
 20
48.2501567527
 10
13.7558874674
 20
49.9253923554
 10
13.8684121777
 20
51.5529136782
 10
14.0556271509
 20
53.128474704
 10
14.3170439645
 20
54.6479649738
 10
14.6519806117
 20
56.1074203111
 10
15.0595632812
 20
57.5030331635
 10
15.5387286363
 20
58.8311625364
 10
16.0882265894
 20
60.088343492
 10
16.7066235628
 20
61.2712961886
 10
17.3923062297
 20
62.3769344378
 10
18.1434857222
 20
63.4023737556
 10
18.9582022988
 20
64.3449388879
 10
19.8343304569
 20
65.2021707899
 10
20.6891326159
 20
65.9108496769
  0
LWPOLYLINE
  5
F6
330
1F
100
AcDbEntity
  8
0
  6
Continuous
 62
     7
370
    25
100
AcDbPolyline
 90
       46
 70
   128
 43
0.0
 10
61.3195405444
 20
-4.3698499954
 10
60.5231386011
 20
-4.6766677816
 10
59.3540860411
 20
-5.0308321835
 10
58.1410568142
 20
-5.2893363502
 10
56.8872155754
 20
-5.4515058739
 10
55.5958334531
 20
-5.5169176727
 10
54.2702795159
 20
-5.4854010948
 10
52.9140119827
 20
-5.3570383633
 10
51.5305692006
 20
-5.1321643619
 10
50.1235604139
 20
-4.8113657612
 10
48.6966563478
 20
-4.3954794882
 10
47.2535796321
 20
-3.8855905426
 10
45.7980950893
 20
-3.2830291665
 10
44.3339999122
 20
-2.5893673737
 10
42.865113758
 20
-1.8064148486
 10
41.3952687831
 20
-0.936214225
 10
39.9282996451
 20
0.0189642431
 10
38.468033499
 20
1.0566286041
 10
37.0182800125
 20
2.1740717102
 10
35.5828214268
 20
3.3683782798
 10
34.1654026895
 20
4.6364325036
 10
32.7697216843
 20
5.9749261727
 10
31.3994195835
 20
7.3803673102
 10
30.058071349
 20
8.8490892804
 10
28.7491764049
 20
10.3772603556
 10
27.4761495089
 20
11.9608937118
 10
26.2423118428
 20
13.5958578304
 10
25.050882348
 20
15.2778872767
 10
23.9049693283
 20
17.002593828
 10
22.8075623397
 20
18.7654779218
 10
21.7615243918
 20
20.5619403947
 10
20.7695844782
 20
22.3872944813
 10
19.8343304569
 20
24.2367780412
 10
18.9582022988
 20
26.105565983
 10
18.1434857222
 20
27.9887828522
 10
17.3923062297
 20
29.8815155512
 10
16.7066235628
 20
31.7788261564
 10
16.0882265894
 20
33.675764801
 10
15.5387286363
 20
35.5673825887
 10
15.0595632812
 20
37.4487445048
 10
14.6519806117
 20
39.3149422907
 10
14.3170439645
 20
41.1611072496
 10
14.0556271509
 20
42.9824229478
 10
13.8684121777
 20
44.7741377806
 10
13.7558874674
 20
46.5315773687
 10
13.718346584
 20
48.2501567527
  0
LWPOLYLINE
  5
F7
330
1F
100
AcDbEntity
  8
0
  6
Continuous
 62
     7
370
    25
100
AcDbPolyline
 90
       17
 70
   128
 43
0.0
 10
-28.2745414716
 20
24.0081784833
 10
-28.2370005882
 20
25.6834140859
 10
-28.1244758778
 20
27.3109354088
 10
-27.9372609046
 20
28.8864964346
 10
-27.6758440911
 20
30.4059867044
 10
-27.3409074438
 20
31.8654420417
 10
-26.9333247743
 20
33.2610548941
 10
-26.4541594192
 20
34.589184267
 10
-25.9046614662
 20
35.8463652225
 10
-25.2862644927
 20
37.0293179192
 10
-24.6005818258
 20
38.1349561684
 10
-23.8494023333
 20
39.1603954862
 10
-23.0346857568
 20
40.1029606184
 10
-22.1585575987
 20
40.9601925204
 10
-21.2233035773
 20
41.729854772
 10
-20.2313636637
 20
42.4099394121
 10
-19.8436416864
 20
42.6424621066
  0
LWPOLYLINE
  5
F8
330
1F
100
AcDbEntity
  8
0
  6
Continuous
 62
     7
370
    25
100
AcDbPolyline
 90
       48
 70
   128
 43
0.0
 10
20.8530507318
 20
-27.8539152912
 10
20.7243486536
 20
-27.9272795957
 10
19.6522765141
 20
-28.4697453884
 10
18.5302505455
 20
-28.9186460511
 10
17.3611979855
 20
-29.272810453
 10
16.1481687587
 20
-29.5313146197
 10
14.8943275198
 20
-29.6934841433
 10
13.6029453976
 20
-29.7588959422
 10
12.2773914604
 20
-29.7273793642
 10
10.9211239272
 20
-29.5990166327
 10
9.5376811451
 20
-29.3741426313
 10
8.1306723584
 20
-29.0533440307
 10
6.7037682923
 20
-28.6374577576
 10
5.2606915766
 20
-28.127568812
 10
3.8052070337
 20
-27.5250074359
 10
2.3411118566
 20
-26.8313456431
 10
0.8722257025
 20
-26.048393118
 10
-0.5976192724
 20
-25.1781924944
 10
-2.0645884104
 20
-24.2230140263
 10
-3.5248545565
 20
-23.1853496653
 10
-4.9746080431
 20
-22.0679065593
 10
-6.4100666288
 20
-20.8735999896
 10
-7.827485366
 20
-19.6055457659
 10
-9.2231663712
 20
-18.2670520967
 10
-10.593468472
 20
-16.8616109593
 10
-11.9348167066
 20
-15.392888989
 10
-13.2437116506
 20
-13.8647179139
 10
-14.5167385466
 20
-12.2810845577
 10
-15.7505762128
 20
-10.6461204391
 10
-16.9420057075
 20
-8.9640909927
 10
-18.0879187273
 20
-7.2393844414
 10
-19.1853257159
 20
-5.4765003477
 10
-20.2313636637
 20
-3.6800378747
 10
-21.2233035773
 20
-1.8546837881
 10
-22.1585575987
 20
-0.0052002282
 10
-23.0346857568
 20
1.8635877135
 10
-23.8494023333
 20
3.7468045828
 10
-24.6005818258
 20
5.6395372818
 10
-25.2862644927
 20
7.5368478869
 10
-25.9046614662
 20
9.4337865315
 10
-26.4541594192
 20
11.3254043193
 10
-26.9333247743
 20
13.2067662353
 10
-27.3409074438
 20
15.0729640213
 10
-27.6758440911
 20
16.9191289801
 10
-27.9372609046
 20
18.7404446783
 10
-28.1244758778
 20
20.5321595112
 10
-28.2370005882
 20
22.2895990992
 10
-28.2745414716
 20
24.0081784833
  0
LINE
  5
F9
330
1F
100
AcDbEntity
  8
0
  6
Continuous
 62
     7
370
    25
100
AcDbLine
 10
96.699234026
 20
24.4230660971
 30
0.0
 11
96.699234026
 21
-34.9638457143
 31
0.0
  0
LINE
  5
FA
330
1F
100
AcDbEntity
  8
0
  6
Continuous
 62
     7
370
    25
100
AcDbLine
 10
178.099234026
 20
-34.9638457143
 30
0.0
 11
178.099234026
 21
24.4230660971
 31
0.0
  0
ARC
  5
FB
330
1F
100
AcDbEntity
  8
0
  6
Continuous
 62
     7
370
    25
100
AcDbCircle
 10
99.699234026
 20
24.4230660971
 30
0.0
 40
2.999999999999995
100
AcDbArc
 50
124.2417961379
 51
180.0
  0
ARC
  5
FC
330
1F
100
AcDbEntity
  8
0
  6
Continuous
 62
     7
370
    25
100
AcDbCircle
 10
175.099234026
 20
24.4230660971
 30
0.0
 40
2.999999999999979
100
AcDbArc
 50
0.0
 51
55.7582038621
  0
ARC
  5
FD
330
1F
100
AcDbEntity
  8
0
  6
Continuous
 62
     7
370
    25
100
AcDbCircle
 10
97.699234026
 20
-34.9638457143
 30
0.0
 40
1.000000000000007
100
AcDbArc
 50
180.0
 51
270.0
  0
ARC
  5
FE
330
1F
100
AcDbEntity
  8
0
  6
Continuous
 62
     7
370
    25
100
AcDbCircle
 10
177.099234026
 20
-34.9638457143
 30
0.0
 40
1.000000000000007
100
AcDbArc
 50
270.0
 51
0.0
  0
ARC
  5
FF
330
1F
100
AcDbEntity
  8
0
  6
Continuous
 62
     7
370
    25
100
AcDbCircle
 10
137.399234026
 20
-30.9638457143
 30
0.0
 40
70.0
100
AcDbArc
 50
55.7582038621
 51
90.0
  0
ARC
  5
100
330
1F
100
AcDbEntity
  8
0
  6
Continuous
 62
     7
370
    25
100
AcDbCircle
 10
137.399234026
 20
-30.9638457143
 30
0.0
 40
70.00000000000001
100
AcDbArc
 50
90.0
 51
124.2417961379
  0
SPLINE
  5
101
330
1F
100
AcDbEntity
  8
0
  6
Continuous
 62
     7
370
    25
100
AcDbSpline
210
0.0
220
0.0
230
1.0
 70
    11
 71
     3
 72
    91
 73
    87
 74
     0
 42
0.00000001
 43
0.00000001
 40
0.0
 40
0.0
 40
0.0
 40
0.0
 40
0.0312499999999999
 40
0.0312499999999999
 40
0.0468749999999998
 40
0.0468749999999998
 40
0.0624999999999998
 40
0.0624999999999998
 40
0.0937499999999997
 40
0.0937499999999997
 40
0.1249999999999996
 40
0.1249999999999996
 40
0.1562499999999994
 40
0.1562499999999994
 40
0.1718749999999994
 40
0.1718749999999994
 40
0.1874999999999993
 40
0.2031249999999993
 40
0.2031249999999993
 40
0.2187499999999992
 40
0.2187499999999992
 40
0.2499999999999991
 40
0.2499999999999991
 40
0.2812499999999989
 40
0.2812499999999989
 40
0.3124999999999988
 40
0.3124999999999988
 40
0.3281249999999987
 40
0.3281249999999987
 40
0.3437499999999987
 40
0.3437499999999987
 40
0.3749999999999983
 40
0.3749999999999983
 40
0.4062499999999979
 40
0.4062499999999979
 40
0.4218749999999978
 40
0.4218749999999978
 40
0.4374999999999978
 40
0.4374999999999978
 40
0.4687499999999979
 40
0.4687499999999979
 40
0.4843749999999979
 40
0.4843749999999979
 40
0.499999999999998
 40
0.499999999999998
 40
0.531249999999998
 40
0.531249999999998
 40
0.562499999999998
 40
0.562499999999998
 40
0.578124999999998
 40
0.578124999999998
 40
0.593749999999998
 40
0.593749999999998
 40
0.6249999999999981
 40
0.6249999999999981
 40
0.6562499999999982
 40
0.6562499999999982
 40
0.6874999999999983
 40
0.6874999999999983
 40
0.7031249999999983
 40
0.7031249999999983
 40
0.7187499999999984
 40
0.7187499999999984
 40
0.7499999999999987
 40
0.7499999999999987
 40
0.7812499999999989
 40
0.7812499999999989
 40
0.7968749999999989
 40
0.7968749999999989
 40
0.812499999999999
 40
0.812499999999999
 40
0.8437499999999989
 40
0.8437499999999989
 40
0.8593749999999989
 40
0.8593749999999989
 40
0.874999999999999
 40
0.874999999999999
 40
0.9062499999999993
 40
0.9062499999999993
 40
0.9374999999999997
 40
0.9374999999999997
 40
0.9531249999999998
 40
0.9531249999999998
 40
0.96875
 40
0.96875
 40
1.0
 40
1.0
 40
1.0
 40
1.0
 10
142.5612182457033
 20
-21.13170057611684
 30
0.0
 10
142.2265395065025
 20
-20.79192005177666
 30
0.0
 10
141.8641318384026
 20
-20.4905216208138
 30
0.0
 10
141.2803597815925
 20
-20.0935171655988
 30
0.0
 10
141.0790253878198
 20
-19.97043481390279
 30
0.0
 10
140.6625050323624
 20
-19.74319869334662
 30
0.0
 10
140.4465877855618
 20
-19.63886718027291
 30
0.0
 10
139.7917953589651
 20
-19.36133027156427
 30
0.0
 10
139.3418531917071
 20
-19.22067372189072
 30
0.0
 10
138.4151725994946
 20
-19.02755120561964
 30
0.0
 10
137.9352320543481
 20
-18.97600679188433
 30
0.0
 10
136.9895586790437
 20
-18.96776915446825
 30
0.0
 10
136.5190249845774
 20
-19.00947848956528
 30
0.0
 10
135.8167544244316
 20
-19.14239487936457
 30
0.0
 10
135.5836376695663
 20
-19.19860540500353
 30
0.0
 10
135.1289310263668
 20
-19.33214149587501
 30
0.0
 10
134.683101113358
 20
-19.48723039340042
 30
0.0
 10
134.2547003656654
 20
-19.68475208781324
 30
0.0
 10
133.8351031221691
 20
-19.90377908444151
 30
0.0
 10
133.6286192379341
 20
-20.0248014366382
 30
0.0
 10
133.0325082698814
 20
-20.41497823057718
 30
0.0
 10
132.6659380782872
 20
-20.7102113848095
 30
0.0
 10
131.992734339214
 20
-21.36954070837968
 30
0.0
 10
131.6838963171482
 20
-21.73790543240856
 30
0.0
 10
131.1515856292583
 20
-22.51724695869838
 30
0.0
 10
130.9251661225072
 20
-22.92987082701968
 30
0.0
 10
130.6459284707554
 20
-23.58396837904575
 30
0.0
 10
130.5626948190331
 20
-23.80909750810462
 30
0.0
 10
130.4202230796896
 20
-24.26233680620714
 30
0.0
 10
130.3605668153521
 20
-24.4911160879249
 30
0.0
 10
130.2156213853997
 20
-25.18381404851529
 30
0.0
 10
130.1640135779217
 20
-25.65421885093557
 30
0.0
 10
130.1550963387935
 20
-26.61193913102139
 30
0.0
 10
130.1979020335722
 20
-27.08312041463814
 30
0.0
 10
130.3300392818143
 20
-27.77887472629305
 30
0.0
 10
130.3854913966937
 20
-28.00894317582271
 30
0.0
 10
130.5197261470156
 20
-28.46530494389454
 30
0.0
 10
130.5987619639296
 20
-28.69180705016216
 30
0.0
 10
130.8657466234964
 20
-29.35065052036704
 30
0.0
 10
131.0845882926419
 20
-29.76769440219679
 30
0.0
 10
131.4737203407572
 20
-30.36045894101382
 30
0.0
 10
131.6144514028503
 20
-30.55349514910764
 30
0.0
 10
131.9130345527688
 20
-30.9231243436686
 30
0.0
 10
132.0703415913911
 20
-31.09927626407878
 30
0.0
 10
132.5656891126599
 20
-31.60253012711873
 30
0.0
 10
132.9269241979092
 20
-31.90467840846137
 30
0.0
 10
133.7137348188423
 20
-32.44037586061463
 30
0.0
 10
134.1306838369667
 20
-32.66746699424552
 30
0.0
 10
134.7809564322715
 20
-32.94377215076057
 30
0.0
 10
135.0023799501897
 20
-33.02541189393944
 30
0.0
 10
135.4547655341306
 20
-33.16736528515017
 30
0.0
 10
135.6870723345373
 20
-33.22790500260054
 30
0.0
 10
136.3859268463632
 20
-33.37354094628795
 30
0.0
 10
136.8553964656071
 20
-33.42396702447889
 30
0.0
 10
137.8013503004003
 20
-33.43321165323876
 30
0.0
 10
138.282277505037
 20
-33.39050885710132
 30
0.0
 10
139.2122402979499
 20
-33.2145472171189
 30
0.0
 10
139.6650619544304
 20
-33.08216613173821
 30
0.0
 10
140.3259312817566
 20
-32.81622577328837
 30
0.0
 10
140.5437425658814
 20
-32.71581972058038
 30
0.0
 10
140.9638817570651
 20
-32.49648936291241
 30
0.0
 10
141.1673498275009
 20
-32.37718630895694
 30
0.0
 10
141.7583975091658
 20
-31.99090663332874
 30
0.0
 10
142.1283507960445
 20
-31.69432367913333
 30
0.0
 10
142.8082622997943
 20
-31.02863747767789
 30
0.0
 10
143.1105943719187
 20
-30.6676058446028
 30
0.0
 10
143.5095354399043
 20
-30.08480759088597
 30
0.0
 10
143.6333549352829
 20
-29.88361570504031
 30
0.0
 10
143.8621556397791
 20
-29.46693016326453
 30
0.0
 10
143.966826408169
 20
-29.25165870457827
 30
0.0
 10
144.2455278640494
 20
-28.5986471766026
 30
0.0
 10
144.3872555511021
 20
-28.14918162991624
 30
0.0
 10
144.5335150170049
 20
-27.4536100796676
 30
0.0
 10
144.5712509136834
 20
-27.21685031082436
 30
0.0
 10
144.6227612926783
 20
-26.74271893393859
 30
0.0
 10
144.6366141968768
 20
-26.50606773060657
 30
0.0
 10
144.6434440854633
 20
-25.7973241893627
 30
0.0
 10
144.6020283199488
 20
-25.32643059222149
 30
0.0
 10
144.4242848482454
 20
-24.3879457201317
 30
0.0
 10
144.2897687081617
 20
-23.93210624145275
 30
0.0
 10
144.0247698053367
 20
-23.27650110166452
 30
0.0
 10
143.9257239978963
 20
-23.06217923427787
 30
0.0
 10
143.705825936596
 20
-22.64208090053933
 30
0.0
 10
143.5844112574758
 20
-22.43559096093693
 30
0.0
 10
143.1933453275469
 20
-21.84001226164153
 30
0.0
 10
142.8958969849042
 20
-21.47148110045702
 30
0.0
 10
142.5612182457033
 20
-21.13170057611684
 30
0.0
  0
CIRCLE
  5
102
330
1F
100
AcDbEntity
  8
0
  6
Continuous
 62
     7
370
    25
100
AcDbCircle
 10
137.399234026
 20
-26.2002742339
 30
0.0
 40
7.000000000000004
  0
CIRCLE
  5
103
330
1F
100
AcDbEntity
  8
0
  6
Continuous
 62
     7
370
    25
100
AcDbCircle
 10
137.399234026
 20
-26.2002742339
 30
0.0
 40
4.75
  0
LINE
  5
104
330
1F
100
AcDbEntity
  8
0
  6
Continuous
 62
     7
370
    25
100
AcDbLine
 10
97.699234026
 20
-35.9638457143
 30
0.0
 11
177.099234026
 21
-35.9638457143
 31
0.0
  0
LINE
  5
105
330
1F
100
AcDbEntity
  8
0
  6
Continuous
 62
     7
370
    25
100
AcDbLine
 10
96.699234026
 20
-34.9638457143
 30
0.0
 11
178.099234026
 21
-34.9638457143
 31
0.0
  0
LINE
  5
106
330
1F
100
AcDbEntity
  8
0
  6
Continuous
 62
     7
370
    25
100
AcDbLine
 10
96.699234026
 20
24.4230660971
 30
0.0
 11
178.099234026
 21
24.4230660971
 31
0.0
  0
LINE
  5
107
330
1F
100
AcDbEntity
  8
0
  6
Continuous
 62
     7
370
    25
100
AcDbLine
 10
98.0111743245
 20
26.9030770737
 30
0.0
 11
176.7872937275
 21
26.9030770737
 31
0.0
  0
INSERT
  5
113
330
1F
100
AcDbEntity
  8
FORMAT
 62
     7
100
AcDbBlockReference
  2
SW_CENTERMARKSYMBOL_1
 10
137.399234026
 20
-26.2002742339
 30
0.0
  0
SPLINE
  5
114
330
1F
100
AcDbEntity
  8
0
  6
Continuous
 62
     7
370
    25
100
AcDbSpline
210
0.0
220
0.0
230
1.0
 70
     8
 71
     3
 72
    56
 73
    52
 74
     0
 42
0.00000001
 43
0.00000001
 40
0.0
 40
0.0
 40
0.0
 40
0.0
 40
0.0003039074740287
 40
0.0210878771563714
 40
0.0418950849127749
 40
0.0627431039504495
 40
0.0836452345064099
 40
0.1046095975810351
 40
0.1256390171977814
 40
0.1467316027237826
 40
0.1678818163286484
 40
0.1890817539053089
 40
0.2103223875112699
 40
0.2315945926869685
 40
0.2528898787067524
 40
0.2742008212208402
 40
0.2955212477773475
 40
0.3168462466235851
 40
0.3381714473618679
 40
0.3594940074080767
 40
0.3808122619380414
 40
0.4021251653753026
 40
0.4234321527068405
 40
0.4447330241299713
 40
0.4660278522637735
 40
0.4873169094170186
 40
0.5086006117797981
 40
0.5298794774023701
 40
0.5511540951245185
 40
0.5724251020334982
 40
0.5936931674542906
 40
0.6149589818616531
 40
0.6362232494279976
 40
0.6574866831800344
 40
0.6787500019327352
 40
0.7000138095218275
 40
0.7212787089986343
 40
0.7425454267313557
 40
0.7638146883720586
 40
0.7850872157501857
 40
0.8063637219901
 40
0.8276449039795742
 40
0.8489314311355443
 40
0.8702239291434062
 40
0.8915229570057213
 40
0.9128289753286876
 40
0.9341423033178763
 40
0.9554630614964437
 40
0.9767910967977579
 40
0.9969996287088796
 40
1.0
 40
1.0
 40
1.0
 40
1.0
 10
260.5642709518588
 20
58.23565774724517
 30
0.0
 10
260.5591517328026
 20
58.23811862493305
 30
0.0
 10
260.2039335436561
 20
58.40887680238387
 30
0.0
 10
259.4582266249038
 20
58.67096938662706
 30
0.0
 10
258.3270504075095
 20
59.0139077182699
 30
0.0
 10
257.1518618362813
 20
59.26066053028079
 30
0.0
 10
255.9418102587391
 20
59.42350849719873
 30
0.0
 10
254.6976005699395
 20
59.49839574766956
 30
0.0
 10
253.4224604772394
 20
59.48582604902666
 30
0.0
 10
252.1192102476369
 20
59.38531873933834
 30
0.0
 10
250.7910321113596
 20
59.19696646995717
 30
0.0
 10
249.4412156624794
 20
58.92106099409491
 30
0.0
 10
248.073164234027
 20
58.55821330509401
 30
0.0
 10
246.6903300415283
 20
58.10931739165594
 30
0.0
 10
245.2961774328064
 20
57.57553934547902
 30
0.0
 10
243.8941524509555
 20
56.95829080912094
 30
0.0
 10
242.487665070246
 20
56.25920457066237
 30
0.0
 10
241.0800936639518
 20
55.48011961690842
 30
0.0
 10
239.6747704574059
 20
54.62306007317845
 30
0.0
 10
238.2749738906987
 20
53.69021645310418
 30
0.0
 10
236.8839178049276
 20
52.68392329273971
 30
0.0
 10
235.5047657358455
 20
51.60665664946669
 30
0.0
 10
234.1406400195082
 20
50.4610340833967
 30
0.0
 10
232.7946208016915
 20
49.24981008481392
 30
0.0
 10
231.4697437640708
 20
47.97587176518054
 30
0.0
 10
230.1689967312998
 20
46.64223444657507
 30
0.0
 10
228.8953153707948
 20
45.2520369171
 30
0.0
 10
227.6515782035506
 20
43.80853621920138
 30
0.0
 10
226.4406011285429
 20
42.31510190787692
 30
0.0
 10
225.2651316381993
 20
40.77520976295211
 30
0.0
 10
224.1278428752266
 20
39.1924349700522
 30
0.0
 10
223.0313276556523
 20
37.57044480382259
 30
0.0
 10
221.9780925607807
 20
35.9129908580591
 30
0.0
 10
220.9705521828076
 20
34.22390087453725
 30
0.0
 10
220.0110253798687
 20
32.50707342112997
 30
0.0
 10
219.1017295578338
 20
30.76646941689001
 30
0.0
 10
218.2447734990373
 20
29.00609981693954
 30
0.0
 10
217.442151378053
 20
27.23001284974682
 30
0.0
 10
216.6957391159762
 20
25.44228435778435
 30
0.0
 10
216.0072924267812
 20
23.64701177160971
 30
0.0
 10
215.3784436113307
 20
21.84830481895263
 30
0.0
 10
214.8106987414641
 20
20.05027632181939
 30
0.0
 10
214.3054356643144
 20
18.25703344755898
 30
0.0
 10
213.8639012346989
 20
16.47266858215799
 30
0.0
 10
213.4872136458177
 20
14.70125354626194
 30
0.0
 10
213.1763477418606
 20
12.9468239746184
 30
0.0
 10
212.932185513789
 20
11.21340388026792
 30
0.0
 10
212.7553242134871
 20
9.50488452696758
 30
0.0
 10
212.648700000896
 20
7.855014466762164
 30
0.0
 10
212.6186431946598
 20
6.70801447124275
 30
0.0
 10
212.6175180759151
 20
6.118167753244983
 30
0.0
 10
212.6173726242343
 20
6.041914293810883
 30
0.0
  0
SPLINE
  5
115
330
1F
100
AcDbEntity
  8
0
  6
Continuous
 62
     7
370
    25
100
AcDbSpline
210
0.0
220
0.0
230
1.0
 70
     8
 71
     3
 72
    23
 73
    19
 74
     0
 42
0.00000001
 43
0.00000001
 40
0.0
 40
0.0
 40
0.0
 40
0.0
 40
0.0359752678844034
 40
0.1042015880941011
 40
0.1724454281866802
 40
0.2406843912385653
 40
0.3089038462006192
 40
0.3770851529863249
 40
0.4452053084993391
 40
0.5132372233784507
 40
0.5811507290244893
 40
0.6489145429978179
 40
0.7164992988083787
 40
0.783881501626674
 40
0.8510479339929451
 40
0.9179997066832435
 40
0.9847549795267126
 40
0.9999999999999999
 40
0.9999999999999999
 40
0.9999999999999999
 40
0.9999999999999999
 10
212.6173726242343
 20
6.041914293810883
 30
0.0
 10
212.6192952627662
 20
5.757264849964919
 30
0.0
 10
212.6248641438372
 20
4.932783870583201
 30
0.0
 10
212.6867376458839
 20
3.597959169669661
 30
0.0
 10
212.8256017285338
 20
2.054373366682797
 30
0.0
 10
213.0342255983579
 20
0.5576007833754602
 30
0.0
 10
213.3111445295207
 20
-0.889223497350454
 30
0.0
 10
213.6562104884103
 20
-2.282314777644718
 30
0.0
 10
214.068657978347
 20
-3.618160451201377
 30
0.0
 10
214.5475938976888
 20
-4.893264776491532
 30
0.0
 10
215.0918271772812
 20
-6.1042692678457
 30
0.0
 10
215.6999381189698
 20
-7.247903170856388
 30
0.0
 10
216.3700955846248
 20
-8.321307845351871
 30
0.0
 10
217.1007237308276
 20
-9.321095245918343
 30
0.0
 10
217.8881512857195
 20
-10.24709491752419
 30
0.0
 10
218.7355627050632
 20
-11.08864851902684
 30
0.0
 10
219.3933028185781
 20
-11.67388916773665
 30
0.0
 10
219.7838981817104
 20
-11.95267259599637
 30
0.0
 10
219.8565154135137
 20
-12.00450239927543
 30
0.0
  0
LINE
  5
116
330
1F
100
AcDbEntity
  8
0
  6
Continuous
 62
     7
370
    25
100
AcDbLine
 10
304.030746102
 20
33.2538257429
 30
0.0
 11
262.0378580465
 21
57.4958040124
 31
0.0
  0
LINE
  5
117
330
1F
100
AcDbEntity
  8
0
  6
Continuous
 62
     7
370
    25
100
AcDbLine
 10
221.3411656282
 20
-13.0005733854
 30
0.0
 11
240.8646296026
 21
-24.2712292351
 31
0.0
  0
LINE
  5
118
330
1F
100
AcDbEntity
  8
0
  6
Continuous
 62
     7
370
    25
100
AcDbLine
 10
249.4090895923
 20
-29.2038409937
 30
0.0
 11
263.3340536837
 21
-37.2425516549
 31
0.0
  0
LINE
  5
119
330
1F
100
AcDbEntity
  8
0
  6
Continuous
 62
     7
370
    25
100
AcDbLine
 10
240.6524117336
 20
-14.3445199125
 30
0.0
 11
240.8868256943
 21
-25.3094742809
 31
0.0
  0
LINE
  5
11A
330
1F
100
AcDbEntity
  8
0
  6
Continuous
 62
     7
370
    25
100
AcDbLine
 10
254.8857596228
 20
-25.3094742809
 30
0.0
 11
255.1198969216
 21
-14.3574610593
 31
0.0
  0
SPLINE
  5
11B
330
1F
100
AcDbEntity
  8
0
  6
Continuous
 62
     7
370
    25
100
AcDbSpline
210
0.0
220
0.0
230
1.0
 70
     8
 71
     3
 72
    36
 73
    32
 74
     0
 42
0.00000001
 43
0.00000001
 40
0.0
 40
0.0
 40
0.0
 40
0.0
 40
0.0129075321822221
 40
0.0492306733308655
 40
0.0855745403324875
 40
0.121942862660834
 40
0.1583391997540159
 40
0.1947668405717718
 40
0.2312286614460459
 40
0.2677269292434428
 40
0.3042630343512316
 40
0.340837135996361
 40
0.3774477019927919
 40
0.4140909280678442
 40
0.4507600314249519
 40
0.487444433384584
 40
0.5241231590384127
 40
0.5607730002332225
 40
0.5973650813856736
 40
0.6338644832308057
 40
0.670231302184439
 40
0.7064229002522824
 40
0.7423974146709521
 40
0.7781182631190116
 40
0.8135590048698758
 40
0.8487076686292956
 40
0.8835696815780895
 40
0.9181688477733484
 40
0.9525462860201821
 40
0.9867576420234823
 40
1.0
 40
1.0
 40
1.0
 40
1.0
 10
308.9692544979383
 20
-6.609103799414418
 30
0.0
 10
309.0593179781628
 20
-6.397426919746457
 30
0.0
 10
309.4028294807011
 20
-5.590069233744818
 30
0.0
 10
309.9396776340939
 20
-4.176766873689126
 30
0.0
 10
310.5777096028713
 20
-2.374024917077226
 30
0.0
 10
311.1500586106199
 20
-0.5688544555562444
 30
0.0
 10
311.6601841897424
 20
1.233918306910858
 30
0.0
 10
312.1053577183635
 20
3.030624033645292
 30
0.0
 10
312.484632669133
 20
4.817303278397543
 30
0.0
 10
312.7967043026989
 20
6.590096370317683
 30
0.0
 10
313.0404817600848
 20
8.345136848347767
 30
0.0
 10
313.2149335614632
 20
10.07857357870579
 30
0.0
 10
313.3191305487805
 20
11.7865531062829
 30
0.0
 10
313.3522402272578
 20
13.46520700249176
 30
0.0
 10
313.3135410164261
 20
15.1106323682286
 30
0.0
 10
313.2024467956019
 20
16.71878638031691
 30
0.0
 10
313.0185528973718
 20
18.28552218799184
 30
0.0
 10
312.7616874796528
 20
19.80658504922024
 30
0.0
 10
312.4319521130434
 20
21.27768860959297
 30
0.0
 10
312.0297879554384
 20
22.69448827848355
 30
0.0
 10
311.5560399683214
 20
24.05262940669674
 30
0.0
 10
311.0120073971374
 20
25.34783761886457
 30
0.0
 10
310.3994624928725
 20
26.57603154713748
 30
0.0
 10
309.7206395667064
 20
27.73346817236731
 30
0.0
 10
308.9781348110157
 20
28.81680191716512
 30
0.0
 10
308.1749236001091
 20
29.82338414324642
 30
0.0
 10
307.3137708976154
 20
30.75048803888359
 30
0.0
 10
306.3987884377125
 20
31.59823733381551
 30
0.0
 10
305.4290766378868
 20
32.35859261076492
 30
0.0
 10
304.6264334317443
 20
32.91402754409141
 30
0.0
 10
304.1316649195724
 20
33.18621116329652
 30
0.0
 10
303.9935956051985
 20
33.26216629132699
 30
0.0
  0
SPLINE
  5
11C
330
1F
100
AcDbEntity
  8
0
  6
Continuous
 62
     7
370
    25
100
AcDbSpline
210
0.0
220
0.0
230
1.0
 70
     8
 71
     3
 72
    36
 73
    32
 74
     0
 42
0.00000001
 43
0.00000001
 40
0.0
 40
0.0
 40
0.0
 40
0.0
 40
0.0046204078031063
 40
0.0389030445902927
 40
0.0731785158350706
 40
0.1075111495914384
 40
0.1419695754491902
 40
0.1766132136275254
 40
0.2114885542822405
 40
0.2466264530032262
 40
0.282040792929165
 40
0.3177287743273773
 40
0.353672868857952
 40
0.3898441580641114
 40
0.4262064798658693
 40
0.4627206626587151
 40
0.4993481964380094
 40
0.5360539302358268
 40
0.57280767993059
 40
0.6095848687885529
 40
0.6463631308674694
 40
0.6831280984338676
 40
0.7198712713291656
 40
0.7565873775187483
 40
0.7932736647526191
 40
0.8299292967104569
 40
0.866554861792259
 40
0.903151986852701
 40
0.9397230415056504
 40
0.9762709168882486
 40
1.0
 40
1.0
 40
1.0
 40
1.0
 10
263.3354617767178
 20
-37.23694957499963
 30
0.0
 10
263.3818862510801
 20
-37.26582467510479
 30
0.0
 10
263.7727723964514
 20
-37.50894808645923
 30
0.0
 10
264.5537997427328
 20
-37.8877426703271
 30
0.0
 10
265.6768007563924
 20
-38.36550850491235
 30
0.0
 10
266.8446625660775
 20
-38.74971485764208
 30
0.0
 10
268.0492500177436
 20
-39.04992423203849
 30
0.0
 10
269.2902236247953
 20
-39.26270526429641
 30
0.0
 10
270.5650846078669
 20
-39.38801807489843
 30
0.0
 10
271.8716745032918
 20
-39.42486357034413
 30
0.0
 10
273.2073720780002
 20
-39.37257401382766
 30
0.0
 10
274.5692304607429
 20
-39.23060642890925
 30
0.0
 10
275.9539241666391
 20
-38.9987413375049
 30
0.0
 10
277.3578140809146
 20
-38.67714564562214
 30
0.0
 10
278.7770339690976
 20
-38.26642640017469
 30
0.0
 10
280.2076003072291
 20
-37.76763322932472
 30
0.0
 10
281.6455171782461
 20
-37.18222621154056
 30
0.0
 10
283.0868610440883
 20
-36.51201953646745
 30
0.0
 10
284.5278367449852
 20
-35.75911646971533
 30
0.0
 10
285.9647618351444
 20
-34.92587258225825
 30
0.0
 10
287.3941111717044
 20
-34.01483254568043
 30
0.0
 10
288.8125288789103
 20
-33.02867838595028
 30
0.0
 10
290.2168479015884
 20
-31.97016429298324
 30
0.0
 10
291.6040312760405
 20
-30.84212686247864
 30
0.0
 10
292.9711144721603
 20
-29.64747496344681
 30
0.0
 10
294.3152512964991
 20
-28.38926066114988
 30
0.0
 10
295.6334826306234
 20
-27.0704065282962
 30
0.0
 10
296.9235578124558
 20
-25.69472111027689
 30
0.0
 10
298.1808495866782
 20
-24.26311391876639
 30
0.0
 10
299.2663888718101
 20
-22.95992661999861
 30
0.0
 10
299.9162118099907
 20
-22.1153166794355
 30
0.0
 10
300.1720260198177
 20
-21.7828211458642
 30
0.0
  0
LINE
  5
11D
330
1F
100
AcDbEntity
  8
0
  6
Continuous
 62
     7
370
    25
100
AcDbLine
 10
254.9537847994
 20
59.468106385
 30
0.0
 11
254.8857596228
 21
62.6500540628
 31
0.0
  0
LINE
  5
11E
330
1F
100
AcDbEntity
  8
0
  6
Continuous
 62
     7
370
    25
100
AcDbLine
 10
240.8868256943
 20
62.6500540628
 30
0.0
 11
240.7286791333
 21
55.2525858437
 31
0.0
  0
LWPOLYLINE
  5
11F
330
1F
100
AcDbEntity
  8
0
  6
Continuous
 62
     7
370
    25
100
AcDbPolyline
 90
      122
 70
   128
 43
0.0
 10
212.910265843
 20
6.4501183497
 10
212.9481046052
 20
8.1545111583
 10
213.0615188849
 20
9.89799693
 10
213.2502029374
 20
11.6758755354
 10
213.5136481038
 20
13.4833541282
 10
213.8511441826
 20
15.3155600657
 10
214.2617813439
 20
17.1675540444
 10
214.7444525826
 20
19.0343434162
 10
215.2978567024
 20
20.9108956468
 10
215.9205018236
 20
22.7921518834
 10
216.610709405
 20
24.6730405915
 10
217.366618769
 20
26.5484912279
 10
218.1861921176
 20
28.4134479092
 10
219.067220026
 20
30.2628830419
 10
220.0073273987
 20
32.0918108758
 10
221.0039798724
 20
33.8953009449
 10
222.0544906483
 20
35.6684913587
 10
223.156027735
 20
37.4066019095
 10
224.3056215833
 20
39.1049469585
 10
225.5001730914
 20
40.7589480677
 10
226.7364619597
 20
42.3641463424
 10
228.0111553719
 20
43.9162144521
 10
229.32081698
 20
45.4109682954
 10
230.6619161677
 20
46.8443782802
 10
232.0308375689
 20
48.2125801867
 10
233.4238908135
 20
49.5118855844
 10
234.837320476
 20
50.7387917757
 10
236.2673162002
 20
51.8899912384
 10
237.7100229703
 20
52.9623805422
 10
239.161551504
 20
53.9530687153
 10
240.617988737
 20
54.8593850374
 10
242.0754083719
 20
55.67888624
 10
243.5298814631
 20
56.4093630926
 10
244.9774870083
 20
57.048846359
 10
246.4143225188
 20
57.5956121052
 10
247.8365145403
 20
58.0481863475
 10
249.2402290943
 20
58.4053490256
 10
250.6216820148
 20
58.6661372923
 10
251.9771491487
 20
58.8298481084
 10
253.3029763964
 20
58.8960401385
 10
254.595589562
 20
58.8645349405
 10
255.851503989
 20
58.735417447
 10
257.0673339541
 20
58.5090357359
 10
258.2398017947
 20
58.1860000922
 10
259.3657467447
 20
57.767181363
 10
260.4421334556
 20
57.2537086094
 10
261.4660601792
 20
56.6469660632
 10
262.4347665901
 20
55.9485893951
 10
263.345641227
 20
55.1604613051
 10
264.1962285329
 20
54.2847064472
 10
264.9842354749
 20
53.3236857017
 10
265.7075377256
 20
52.2799898105
 10
266.3641853899
 20
51.1564323933
 10
266.9524082619
 20
49.9560423622
 10
267.4706205967
 20
48.6820557566
 10
267.9174253855
 20
47.337907019
 10
268.2916181214
 20
45.9272197369
 10
268.5921900472
 20
44.4537968736
 10
268.818330874
 20
42.9216105169
 10
268.9694309661
 20
41.3347911702
 10
269.0450829843
 20
39.6976166179
 10
269.0450829843
 20
38.0145003932
 10
268.9694309661
 20
36.2899798798
 10
268.818330874
 20
34.5287040802
 10
268.5921900472
 20
32.7354210825
 10
268.2916181214
 20
30.9149652606
 10
267.9174253855
 20
29.0722442416
 10
267.4706205967
 20
27.2122256755
 10
266.9524082619
 20
25.3399238436
 10
266.3641853899
 20
23.4603861406
 10
265.7075377256
 20
21.5786794678
 10
264.9842354749
 20
19.6998765738
 10
264.1962285329
 20
17.8290423789
 10
263.345641227
 20
15.9712203214
 10
262.4347665901
 20
14.1314187612
 10
261.4660601792
 20
12.3145974779
 10
260.4421334556
 20
10.5256543005
 10
259.3657467447
 20
8.7694119035
 10
258.2398017947
 20
7.050604806
 10
257.0673339541
 20
5.373866608
 10
255.851503989
 20
3.7437174992
 10
254.595589562
 20
2.1645520735
 10
253.3029763964
 20
0.6406274816
 10
251.9771491487
 20
-0.8239480453
 10
250.6216820148
 20
-2.2252262703
 10
249.2402290943
 20
-3.5594295952
 10
247.8365145403
 20
-4.8229612437
 10
246.4143225188
 20
-6.0124149579
 10
244.9774870083
 20
-7.1245841808
 10
243.5298814631
 20
-8.1564707008
 10
242.0754083719
 20
-9.1052927343
 10
240.617988737
 20
-9.9684924249
 10
239.161551504
 20
-10.7437427388
 10
237.7100229703
 20
-11.4289537382
 10
236.2673162002
 20
-12.0222782154
 10
234.837320476
 20
-12.5221166725
 10
233.4238908135
 20
-12.9271216335
 10
232.0308375689
 20
-13.2362012765
 10
230.6619161677
 20
-13.4485223774
 10
229.32081698
 20
-13.5635125562
 10
228.0111553719
 20
-13.5808618195
 10
226.7364619597
 20
-13.500523397
 10
225.5001730914
 20
-13.3227138667
 10
224.3056215833
 20
-13.0479125717
 10
223.156027735
 20
-12.6768603278
 10
222.0544906483
 20
-12.2105574261
 10
221.0039798724
 20
-11.6502609369
 10
220.0073273987
 20
-10.9974813204
 10
219.067220026
 20
-10.253978355
 10
218.1861921176
 20
-9.4217563934
 10
217.366618769
 20
-8.5030589588
 10
216.610709405
 20
-7.500362697
 10
215.9205018236
 20
-6.4163706998
 10
215.2978567024
 20
-5.2540052182
 10
214.7444525826
 20
-4.0163997839
 10
214.2617813439
 20
-2.7068907623
 10
213.8511441826
 20
-1.3290083582
 10
213.5136481038
 20
0.1135329009
 10
213.2502029374
 20
1.6168441789
 10
213.0615188849
 20
3.1768728144
 10
212.9481046052
 20
4.789413246
 10
212.910265843
 20
6.4501183497
  0
ARC
  5
120
330
1F
100
AcDbEntity
  8
0
  6
Continuous
 62
     7
370
    25
100
AcDbCircle
 10
255.2316300487
 20
45.7055223068
 30
0.0
 40
13.61371054940883
100
AcDbArc
 50
52.6678725719
 51
66.6236391174
  0
ARC
  5
121
330
1F
100
AcDbEntity
  8
0
  6
Continuous
 62
     7
370
    25
100
AcDbCircle
 10
228.1494986354
 20
-1.2068918556
 30
0.0
 40
13.61768250420284
100
AcDbArc
 50
232.8258809058
 51
247.1109037007
  0
SPLINE
  5
122
330
1F
100
AcDbEntity
  8
0
  6
Continuous
 62
     7
370
    25
100
AcDbSpline
210
0.0
220
0.0
230
1.0
 70
     8
 71
     3
 72
    27
 73
    23
 74
     0
 42
0.00000001
 43
0.00000001
 40
0.0
 40
0.0
 40
0.0
 40
0.0
 40
0.0067939186103673
 40
0.0599806094253921
 40
0.1131644674331496
 40
0.1663805691840114
 40
0.2195928716872491
 40
0.2721927155391474
 40
0.3247936056336196
 40
0.3770361792093011
 40
0.4292827199057395
 40
0.4821452408095471
 40
0.5350089133181452
 40
0.5885496959918103
 40
0.6420872739586573
 40
0.6953966433180445
 40
0.7487037470057496
 40
0.8013305185725366
 40
0.8539594586904816
 40
0.9065592220505406
 40
0.9591620015480586
 40
1.0
 40
1.0
 40
1.0
 40
1.0
 10
255.1119199552723
 20
-14.35710267464084
 30
0.0
 10
255.1151147580399
 20
-14.32354574332403
 30
0.0
 10
255.1433203089128
 20
-14.02728591063244
 30
0.0
 10
255.0325901605443
 20
-13.46576683060527
 30
0.0
 10
254.7322239290741
 20
-12.70537300520056
 30
0.0
 10
254.2189204231818
 20
-12.00417679526933
 30
0.0
 10
253.5349980807035
 20
-11.3870091856868
 30
0.0
 10
252.6902003099796
 20
-10.8787359895107
 30
0.0
 10
251.7206074507415
 20
-10.48803730932036
 30
0.0
 10
250.6466219459161
 20
-10.22669209396429
 30
0.0
 10
249.4984230350005
 20
-10.0894578671051
 30
0.0
 10
248.301685960102
 20
-10.08015407151698
 30
0.0
 10
247.0844479396998
 20
-10.18857443474714
 30
0.0
 10
245.8845039901604
 20
-10.41053632633036
 30
0.0
 10
244.7359744174367
 20
-10.73043018097055
 30
0.0
 10
243.6795657837593
 20
-11.13553947061877
 30
0.0
 10
242.7450206672489
 20
-11.60611240326462
 30
0.0
 10
241.9624992665725
 20
-12.1285173169019
 30
0.0
 10
241.343246327688
 20
-12.68721891785062
 30
0.0
 10
240.9159508276719
 20
-13.27255204449401
 30
0.0
 10
240.6732816352512
 20
-13.82864809974963
 30
0.0
 10
240.6718687084361
 20
-14.18768375962759
 30
0.0
 10
240.6712511932103
 20
-14.3445991668411
 30
0.0
  0
LINE
  5
123
330
1F
100
AcDbEntity
  8
0
  6
Continuous
 62
     7
370
    25
100
AcDbLine
 10
304.0033247079
 20
33.269613176
 30
0.0
 11
304.030746102
 21
33.2538257429
 31
0.0
  0
LWPOLYLINE
  5
124
330
1F
100
AcDbEntity
  8
0
  6
Continuous
 62
     7
370
    25
100
AcDbPolyline
 90
      110
 70
   128
 43
0.0
 10
218.4256987363
 20
9.6341099858
 10
218.4631642913
 20
11.1563952902
 10
218.5754364994
 20
12.716880525
 10
218.7621424037
 20
14.310381915
 10
219.022661786
 20
15.9316060091
 10
219.3561292269
 20
17.5751672636
 10
219.7614369814
 20
19.2356059336
 10
220.2372386576
 20
20.9074062086
 10
220.7819536904
 20
22.5850145363
 10
221.3937725911
 20
24.2628580705
 10
222.070662959
 20
25.9353631838
 10
222.8103762322
 20
27.5969739823
 10
223.6104551577
 20
29.2421707622
 10
224.4682419537
 20
30.865488345
 10
225.3808871388
 20
32.4615342332
 10
226.3453589974
 20
34.0250065227
 10
227.3584536511
 20
35.5507115158
 10
228.4168057012
 20
37.033580974
 10
229.5168994087
 20
38.468688954
 10
230.6550803729
 20
39.8512681715
 10
231.8275676712
 20
41.1767258374
 10
233.0304664186
 20
42.4406589146
 10
234.2597807064
 20
43.6388687444
 10
235.5114268762
 20
44.7673749945
 10
236.7812470854
 20
45.8224288804
 10
238.0650231189
 20
46.8005256192
 10
239.3584904018
 20
47.6984160721
 10
240.6573521658
 20
48.5131175371
 10
241.9572937229
 20
49.241923658
 10
243.2539967978
 20
49.8824134141
 10
244.5431538734
 20
50.4324591628
 10
245.8204824996
 20
50.8902337076
 10
247.081739519
 20
51.2542163673
 10
248.3227351627
 20
51.5231980282
 10
249.539346968
 20
51.6962851602
 10
250.7275334728
 20
51.7729027854
 10
251.883347641
 20
51.7527963877
 10
253.0029499743
 20
51.6360327585
 10
254.0826212661
 20
51.4229997748
 10
255.1187749572
 20
51.1144051108
 10
256.107969049
 20
50.7112738869
 10
257.0469175384
 20
50.2149452646
 10
257.9325013329
 20
49.6270679975
 10
258.7617786121
 20
48.9495949549
 10
259.5319946004
 20
48.184776634
 10
260.2405907177
 20
47.3351536844
 10
260.8852130789
 20
46.4035484682
 10
261.4637203134
 20
45.3930556841
 10
261.9741906784
 20
44.3070320875
 10
262.4149284426
 20
43.1490853397
 10
262.7844695194
 20
41.9230620232
 10
263.0815863307
 20
40.6330348643
 10
263.3052918842
 20
39.2832892034
 10
263.4548430525
 20
37.8783087598
 10
263.5297430418
 20
36.4227607374
 10
263.5297430418
 20
34.9214803202
 10
263.4548430525
 20
33.3794546108
 10
263.3052918842
 20
31.8018060636
 10
263.0815863307
 20
30.1937754684
 10
262.7844695194
 20
28.5607045411
 10
262.4149284426
 20
26.908018179
 10
261.9741906784
 20
25.2412064402
 10
261.4637203134
 20
23.5658063055
 10
260.8852130789
 20
21.8873832857
 10
260.2405907177
 20
20.2115129333
 10
259.5319946004
 20
18.5437623211
 10
258.7617786121
 20
16.8896715488
 10
257.9325013329
 20
15.2547353398
 10
257.0469175384
 20
13.6443847876
 10
256.107969049
 20
12.0639693148
 10
255.1187749572
 20
10.5187389027
 10
254.0826212661
 20
9.0138266514
 10
253.0029499743
 20
7.5542317279
 10
251.883347641
 20
6.1448027599
 10
250.7275334728
 20
4.7902217286
 10
249.539346968
 20
3.4949884161
 10
248.3227351627
 20
2.263405457
 10
247.081739519
 20
1.0995640461
 10
245.8204824996
 20
0.0073303477
 10
244.5431538734
 20
-1.0096673479
 10
243.2539967978
 20
-1.9480506766
 10
241.9572937229
 20
-2.8047024233
 10
240.6573521658
 20
-3.5767768771
 10
239.3584904018
 20
-4.2617092842
 10
238.0650231189
 20
-4.8572243681
 10
236.7812470854
 20
-5.3613438876
 10
235.5114268762
 20
-5.7723932084
 10
234.2597807064
 20
-6.0890068658
 10
233.0304664186
 20
-6.3101331013
 10
231.8275676712
 20
-6.4350373556
 10
230.6550803729
 20
-6.4633047094
 10
229.5168994087
 20
-6.3948412614
 10
228.4168057012
 20
-6.2298744404
 10
227.3584536511
 20
-5.9689522494
 10
226.3453589974
 20
-5.6129414457
 10
225.3808871388
 20
-5.1630246615
 10
224.4682419537
 20
-4.6206964751
 10
223.6104551577
 20
-3.9877584461
 10
222.8103762322
 20
-3.266313131
 10
222.070662959
 20
-2.4587570986
 10
221.3937725911
 20
-1.5677729689
 10
220.7819536904
 20
-0.5963205015
 10
220.2372386576
 20
0.4523732361
 10
219.7614369814
 20
1.574824589
 10
219.3561292269
 20
2.7673048864
 10
219.022661786
 20
4.0258528289
 10
218.7621424037
 20
5.3462876466
 10
218.5754364994
 20
6.7242229881
 10
218.4631642913
 20
8.1550814905
 10
218.4256987363
 20
9.6341099858
  0
LWPOLYLINE
  5
125
330
1F
100
AcDbEntity
  8
0
  6
Continuous
 62
     7
370
    25
100
AcDbPolyline
 90
       52
 70
   128
 43
0.0
 10
252.8360401269
 20
-28.1170341799
 10
252.1902575582
 20
-28.4465208198
 10
251.4792312689
 20
-28.7276970763
 10
250.7137396927
 20
-28.9563006041
 10
249.9053869015
 20
-29.1288660067
 10
249.0664266999
 20
-29.2427773685
 10
248.2095768691
 20
-29.2963079094
 10
247.3478263792
 20
-29.2886461609
 10
246.4942384892
 20
-29.2199082673
 10
245.6617527215
 20
-29.0911362251
 10
244.8629887116
 20
-28.9042820871
 10
244.1100549078
 20
-28.6621783716
 10
243.414365019
 20
-28.3684951241
 10
242.7864649948
 20
-28.0276842833
 10
242.2358731595
 20
-27.6449121942
 10
241.770935924
 20
-27.2259812914
 10
241.398701263
 20
-26.7772421404
 10
241.1248118745
 20
-26.3054971693
 10
240.9534196424
 20
-25.817897551
 10
240.8871226983
 20
-25.3218347986
 10
240.9269260361
 20
-24.8248287179
 10
241.072226278
 20
-24.3344134144
 10
241.3208208204
 20
-23.8580230842
 10
241.6689412233
 20
-23.4028793191
 10
242.1113103364
 20
-22.9758816346
 10
242.6412222947
 20
-22.5835028805
 10
243.2506441733
 20
-22.2316911185
 10
243.9303377576
 20
-21.9257794564
 10
244.6699995857
 20
-21.6704052032
 10
245.4584171383
 20
-21.4694395723
 10
246.2836388089
 20
-21.3259289977
 10
247.1331550782
 20
-21.2420489535
 10
247.9940881456
 20
-21.2190709757
 10
248.8533871432
 20
-21.2573433869
 10
249.6980259743
 20
-21.3562860164
 10
250.515200775
 20
-21.5143989949
 10
251.2925240085
 20
-21.7292854907
 10
252.0182122469
 20
-21.9976880436
 10
252.6812647961
 20
-22.3155379445
 10
253.2716304554
 20
-22.6780169129
 10
253.7803598833
 20
-23.0796301371
 10
254.1997412601
 20
-23.5142895701
 10
254.5234171917
 20
-23.9754062178
 10
254.7464810809
 20
-24.455990022
 10
254.8655515065
 20
-24.9487558221
 10
254.8788234822
 20
-25.4462337908
 10
254.7860958184
 20
-25.9408826692
 10
254.588774172
 20
-26.4252040846
 10
254.289849738
 20
-26.8918562179
 10
253.8938539061
 20
-27.3337650986
 10
253.4067895694
 20
-27.7442318383
 10
252.8360401269
 20
-28.1170341799
  0
LWPOLYLINE
  5
126
330
1F
100
AcDbEntity
  8
0
  6
Continuous
 62
     7
370
    25
100
AcDbPolyline
 90
       43
 70
   128
 43
0.0
 10
251.2450498692
 20
-27.1985750541
 10
250.70693854
 20
-27.4659067428
 10
250.1058186429
 20
-27.683953314
 10
249.4551182028
 20
-27.8478439676
 10
248.7693727926
 20
-27.9539176572
 10
248.0639008314
 20
-27.9998048719
 10
247.3544613971
 20
-27.9844805671
 10
246.6569021943
 20
-27.9082870625
 10
245.986805543
 20
-27.772926395
 10
245.3591402951
 20
-27.5814222983
 10
244.787927455
 20
-27.3380526575
 10
244.2859269736
 20
-27.0482539481
 10
243.8643527122
 20
-26.7184997945
 10
243.5326219432
 20
-26.3561563596
 10
243.2981449837
 20
-25.9693177969
 10
243.1661596616
 20
-25.5666254407
 10
243.1396143108
 20
-25.1570747728
 10
243.2191019107
 20
-24.7498144784
 10
243.4028468396
 20
-24.3539420794
 10
243.6867445394
 20
-23.9783007111
 10
244.0644532047
 20
-23.631281581
 10
244.5275354479
 20
-23.320636523
 10
245.0656467771
 20
-23.0533048342
 10
245.6667666743
 20
-22.835258263
 10
246.3174671143
 20
-22.6713676094
 10
247.0032125245
 20
-22.5652939198
 10
247.7086844857
 20
-22.5194067052
 10
248.41812392
 20
-22.53473101
 10
249.1156831228
 20
-22.6109245146
 10
249.7857797741
 20
-22.7462851821
 10
250.413445022
 20
-22.9377892788
 10
250.9846578621
 20
-23.1811589196
 10
251.4866583435
 20
-23.470957629
 10
251.9082326049
 20
-23.8007117826
 10
252.2399633739
 20
-24.1630552175
 10
252.4744403334
 20
-24.5498937802
 10
252.6064256555
 20
-24.9525861364
 10
252.6329710063
 20
-25.3621368043
 10
252.5534834064
 20
-25.7693970987
 10
252.3697384775
 20
-26.1652694977
 10
252.0858407777
 20
-26.5409108659
 10
251.7081321124
 20
-26.8879299961
 10
251.2450498692
 20
-27.1985750541
  0
ARC
  5
127
330
1F
100
AcDbEntity
  8
0
  6
Continuous
 62
     7
370
    25
100
AcDbCircle
 10
246.7082138861
 20
19.3511929132
 30
0.0
 40
67.46176217278897
100
AcDbArc
 50
322.4409942565
 51
337.3517104234
  0
LWPOLYLINE
  5
128
330
1F
100
AcDbEntity
  8
0
  6
Continuous
 62
     7
370
    25
100
AcDbPolyline
 90
       27
 70
   128
 43
0.0
 10
240.8868256943
 20
62.6500540628
 10
240.9269260361
 20
63.034962641
 10
241.072226278
 20
63.5253779445
 10
241.3208208204
 20
64.0017682747
 10
241.6689412233
 20
64.4569120398
 10
242.1113103364
 20
64.8839097243
 10
242.6412222947
 20
65.2762884784
 10
243.2506441733
 20
65.6281002404
 10
243.9303377576
 20
65.9340119025
 10
244.6699995857
 20
66.1893861557
 10
245.4584171383
 20
66.3903517866
 10
246.2836388089
 20
66.5338623612
 10
247.1331550782
 20
66.6177424054
 10
247.9940881456
 20
66.6407203832
 10
248.8533871432
 20
66.602447972
 10
249.6980259743
 20
66.5035053425
 10
250.515200775
 20
66.345392364
 10
251.2925240085
 20
66.1305058682
 10
252.0182122469
 20
65.8621033153
 10
252.6812647961
 20
65.5442534144
 10
253.2716304554
 20
65.181774446
 10
253.7803598833
 20
64.7801612218
 10
254.1997412601
 20
64.3455017888
 10
254.5234171917
 20
63.8843851411
 10
254.7464810809
 20
63.4038013369
 10
254.8655515065
 20
62.9110355368
 10
254.8857596228
 20
62.6500540628
  0
LWPOLYLINE
  5
129
330
1F
100
AcDbEntity
  8
0
  6
Continuous
 62
     7
370
    25
100
AcDbPolyline
 90
       61
 70
   128
 43
0.0
 10
263.4874517615
 20
56.530240445
 10
263.8923887254
 20
56.2094426747
 10
264.7983753152
 20
55.3957301943
 10
265.6440735188
 20
54.495538067
 10
266.427277006
 20
53.5112147912
 10
267.1459424885
 20
52.445328354
 10
267.7981950499
 20
51.3006595314
 10
268.3823330379
 20
50.0801946337
 10
268.8968325031
 20
48.7871177144
 10
269.3403511752
 20
47.4248022636
 10
269.7117319646
 20
45.9968024068
 10
270.0100059813
 20
44.5068436324
 10
270.2343950622
 20
42.9588130729
 10
270.3843138021
 20
41.3567493632
 10
270.45937108
 20
39.7048321047
 10
270.45937108
 20
38.0073709607
 10
270.3843138021
 20
36.2687944137
 10
270.2343950622
 20
34.4936382114
 10
270.0100059813
 20
32.6865335335
 10
269.7117319646
 20
30.8521949099
 10
269.3403511752
 20
28.9954079206
 10
268.8968325031
 20
27.1210167108
 10
268.3823330379
 20
25.2339113532
 10
267.7981950499
 20
23.3390150903
 10
267.1459424885
 20
21.4412714899
 10
266.427277006
 20
19.5456315485
 10
265.6440735188
 20
17.6570407742
 10
264.7983753152
 20
15.7804262848
 10
263.8923887254
 20
13.9206839531
 10
262.9284773648
 20
12.0826656345
 10
261.9091559682
 20
10.2711665091
 10
260.8370838287
 20
8.4909125712
 10
259.7150578602
 20
6.7465483
 10
258.5460053001
 20
5.0426245427
 10
257.3329760733
 20
3.3835866419
 10
256.0791348345
 20
1.7737628381
 10
254.7877527122
 20
0.2173529777
 10
253.462198775
 20
-1.2815824437
 10
252.1059312418
 20
-2.7191328746
 10
250.7224884597
 20
-4.0915479102
 10
249.315479673
 20
-5.3952470763
 10
247.8885756069
 20
-6.6268291706
 10
246.4454988912
 20
-7.7830811361
 10
244.9900143483
 20
-8.8609864435
 10
243.5259191713
 20
-9.8577329608
 10
242.0570330171
 20
-10.7707202901
 10
240.5871880422
 20
-11.5975665519
 10
239.1202189042
 20
-12.3361145986
 10
237.6599527581
 20
-12.9844376426
 10
236.2101992716
 20
-13.5408442833
 10
234.7747406859
 20
-14.0038829191
 10
233.3573219486
 20
-14.3723455351
 10
231.9616409434
 20
-14.6452708546
 10
230.5913388426
 20
-14.8219468463
 10
229.2499906081
 20
-14.901912583
 10
227.941095664
 20
-14.884959443
 10
226.668068768
 20
-14.7711316553
 10
225.4342311019
 20
-14.5607261834
 10
224.2428016071
 20
-14.2542919513
 10
223.0968885874
 20
-13.8526284109
 10
222.8529195936
 20
-13.7523104313
  0
LWPOLYLINE
  5
12A
330
1F
100
AcDbEntity
  8
0
  6
Continuous
 62
     7
370
    25
100
AcDbPolyline
 90
       63
 70
   128
 43
0.0
 10
304.030746102
 20
33.2538257429
 10
304.9213654204
 20
32.6925743558
 10
305.8852767809
 20
31.9674644053
 10
306.7912633708
 20
31.1537519249
 10
307.6369615743
 20
30.2535597975
 10
308.4201650616
 20
29.2692365218
 10
309.138830544
 20
28.2033500846
 10
309.7910831055
 20
27.058681262
 10
310.3752210935
 20
25.8382163643
 10
310.8897205587
 20
24.545139445
 10
311.3332392308
 20
23.1828239942
 10
311.7046200202
 20
21.7548241373
 10
312.0028940368
 20
20.264865363
 10
312.2272831178
 20
18.7168348035
 10
312.3772018576
 20
17.1147710938
 10
312.4522591355
 20
15.4628538352
 10
312.4522591355
 20
13.7653926913
 10
312.3772018576
 20
12.0268161443
 10
312.2272831178
 20
10.2516599419
 10
312.0028940368
 20
8.4445552641
 10
311.7046200202
 20
6.6102166404
 10
311.3332392308
 20
4.7534296511
 10
310.8897205587
 20
2.8790384414
 10
310.3752210935
 20
0.9919330838
 10
309.7910831055
 20
-0.9029631792
 10
309.138830544
 20
-2.8007067796
 10
308.4201650616
 20
-4.696346721
 10
307.6369615743
 20
-6.5849374952
 10
306.7912633708
 20
-8.4615519847
 10
305.8852767809
 20
-10.3212943164
 10
304.9213654204
 20
-12.1593126349
 10
303.9020440238
 20
-13.9708117603
 10
302.8299718843
 20
-15.7510656983
 10
301.7079459157
 20
-17.4954299695
 10
300.5388933557
 20
-19.1993537268
 10
299.3258641289
 20
-20.8583916275
 10
298.07202289
 20
-22.4682154314
 10
296.7806407678
 20
-24.0246252918
 10
295.4550868306
 20
-25.5235607131
 10
294.0988192974
 20
-26.9611111441
 10
292.7153765153
 20
-28.3335261797
 10
291.3083677285
 20
-29.6372253457
 10
289.8814636624
 20
-30.8688074401
 10
288.4383869468
 20
-32.0250594056
 10
286.9829024039
 20
-33.1029647129
 10
285.5188072268
 20
-34.0997112302
 10
284.0499210727
 20
-35.0126985596
 10
282.5800760978
 20
-35.8395448214
 10
281.1131069598
 20
-36.578092868
 10
279.6528408137
 20
-37.2264159121
 10
278.2030873271
 20
-37.7828225527
 10
276.7676287414
 20
-38.2458611885
 10
275.3502100042
 20
-38.6143238046
 10
273.9545289989
 20
-38.887249124
 10
272.5842268982
 20
-39.0639251158
 10
271.2428786636
 20
-39.1438908524
 10
269.9339837196
 20
-39.1269377125
 10
268.6609568236
 20
-39.0131099247
 10
267.4271191574
 20
-38.8027044529
 10
266.2356896627
 20
-38.4962702208
 10
265.0897766429
 20
-38.0946066804
 10
263.9923696543
 20
-37.5987617259
 10
263.3340536837
 20
-37.2425516549
  0
ENDSEC
  0
SECTION
  2
OBJECTS
  0
DICTIONARY
  5
C
330
0
100
AcDbDictionary
281
     1
  3
ACAD_GROUP
350
D
  3
ACAD_LAYOUT
350
1A
  3
ACAD_MLINESTYLE
350
17
  3
ACAD_PLOTSETTINGS
350
19
  3
ACAD_PLOTSTYLENAME
350
E
  3
ACAD_SCALELIST
350
47
  3
DWGPROPS
350
12B
  0
DICTIONARY
  5
D
102
{ACAD_REACTORS
330
C
102
}
330
C
100
AcDbDictionary
281
     1
  0
DICTIONARY
  5
1A
102
{ACAD_REACTORS
330
C
102
}
330
C
100
AcDbDictionary
281
     1
  3
Layout1
350
1E
  3
Layout2
350
26
  3
Model
350
22
  0
DICTIONARY
  5
17
102
{ACAD_REACTORS
330
C
102
}
330
C
100
AcDbDictionary
281
     1
  3
Standard
350
18
  0
DICTIONARY
  5
19
102
{ACAD_REACTORS
330
C
102
}
330
C
100
AcDbDictionary
281
     1
  0
ACDBDICTIONARYWDFLT
  5
E
102
{ACAD_REACTORS
330
C
102
}
330
C
100
AcDbDictionary
281
     1
  3
Normal
350
F
100
AcDbDictionaryWithDefault
340
F
  0
DICTIONARY
  5
47
102
{ACAD_REACTORS
330
C
102
}
330
C
100
AcDbDictionary
281
     1
  3
A0
350
48
  3
A1
350
49
  3
A2
350
4A
  3
A3
350
4B
  3
A4
350
4C
  3
A5
350
4D
  3
A6
350
4E
  3
A7
350
4F
  3
A8
350
50
  3
A9
350
51
  3
B0
350
52
  3
B1
350
53
  3
B2
350
54
  3
B3
350
55
  3
B4
350
56
  3
B5
350
57
  3
B6
350
58
  3
B7
350
59
  3
B8
350
5A
  3
B9
350
5B
  3
C0
350
5C
  3
C1
350
5D
  3
C2
350
5E
  3
C3
350
5F
  3
C4
350
60
  3
C5
350
61
  3
C6
350
62
  3
C7
350
63
  3
C8
350
64
  3
C9
350
65
  3
D0
350
66
  3
D1
350
67
  3
D2
350
68
  0
XRECORD
  5
12B
102
{ACAD_REACTORS
330
C
102
}
330
C
100
AcDbXrecord
280
     1
  1
DWGPROPS COOKIE
  2

  3

  4

  6

  7

  8
b.kav
  9

300
=
301
=
302
=
303
=
304
=
305
=
306
=
307
=
308
=
309
=
 40
0.0
 41
2460087.372612824
 42
2460087.372613067
  1

 90
        0
  0
LAYOUT
  5
1E
102
{ACAD_REACTORS
330
1A
102
}
330
1A
100
AcDbPlotSettings
  1

  2
none_device
  4

  6

 40
0.0
 41
0.0
 42
0.0
 43
0.0
 44
0.0
 45
0.0
 46
0.0
 47
0.0
 48
0.0
 49
0.0
140
0.0
141
0.0
142
1.0
143
1.0
 70
   688
 72
     1
 73
     0
 74
     5
  7

 75
    16
147
1.0
148
0.0
149
0.0
100
AcDbLayout
  1
Layout1
 70
     1
 71
     1
 10
0.0
 20
0.0
 11
420.0
 21
297.0
 12
0.0
 22
0.0
 32
0.0
 14
1.0000000000E+20
 24
1.0000000000E+20
 34
1.0000000000E+20
 15
-1.0000000000E+20
 25
-1.0000000000E+20
 35
-1.0000000000E+20
146
0.0
 13
0.0
 23
0.0
 33
0.0
 16
1.0
 26
0.0
 36
0.0
 17
0.0
 27
1.0
 37
0.0
 76
     0
330
1B
  0
LAYOUT
  5
26
102
{ACAD_REACTORS
330
1A
102
}
330
1A
100
AcDbPlotSettings
  1

  2
none_device
  4

  6

 40
0.0
 41
0.0
 42
0.0
 43
0.0
 44
0.0
 45
0.0
 46
0.0
 47
0.0
 48
0.0
 49
0.0
140
0.0
141
0.0
142
1.0
143
1.0
 70
   688
 72
     1
 73
     0
 74
     5
  7

 75
    16
147
1.0
148
0.0
149
0.0
100
AcDbLayout
  1
Layout2
 70
     1
 71
     2
 10
0.0
 20
0.0
 11
0.0
 21
0.0
 12
0.0
 22
0.0
 32
0.0
 14
0.0
 24
0.0
 34
0.0
 15
0.0
 25
0.0
 35
0.0
146
0.0
 13
0.0
 23
0.0
 33
0.0
 16
1.0
 26
0.0
 36
0.0
 17
0.0
 27
1.0
 37
0.0
 76
     0
330
23
  0
LAYOUT
  5
22
102
{ACAD_REACTORS
330
1A
102
}
330
1A
100
AcDbPlotSettings
  1

  2
none_device
  4
Letter_(8.50_x_11.00_Inches)
  6

 40
6.35
 41
6.35
 42
6.35000508
 43
6.35000508
 44
215.9
 45
279.4
 46
0.0
 47
0.0
 48
0.0
 49
0.0
140
0.0
141
0.0
142
1.0
143
1.0
 70
  1712
 72
     1
 73
     0
 74
     0
  7

 75
     0
147
1.0
148
0.0
149
0.0
100
AcDbLayout
  1
Model
 70
     1
 71
     0
 10
0.0
 20
0.0
 11
279.4
 21
215.9
 12
0.0
 22
0.0
 32
0.0
 14
0.0
 24
0.0
 34
0.0
 15
279.4
 25
215.9
 35
0.0
146
0.0
 13
0.0
 23
0.0
 33
0.0
 16
1.0
 26
0.0
 36
0.0
 17
0.0
 27
1.0
 37
0.0
 76
     0
330
1F
331
29
  0
MLINESTYLE
  5
18
102
{ACAD_REACTORS
330
17
102
}
330
17
100
AcDbMlineStyle
  2
Standard
 70
     0
  3

 62
   256
 51
90.0
 52
90.0
 71
     2
 49
0.5
 62
   256
  6
BYLAYER
 49
-0.5
 62
   256
  6
BYLAYER
  0
ACDBPLACEHOLDER
  5
F
102
{ACAD_REACTORS
330
E
102
}
330
E
  0
SCALE
  5
48
102
{ACAD_REACTORS
330
47
102
}
330
47
100
AcDbScale
 70
     0
300
1:1
140
1.0
141
1.0
290
     1
  0
SCALE
  5
49
102
{ACAD_REACTORS
330
47
102
}
330
47
100
AcDbScale
 70
     0
300
1:2
140
1.0
141
2.0
290
     0
  0
SCALE
  5
4A
102
{ACAD_REACTORS
330
47
102
}
330
47
100
AcDbScale
 70
     0
300
1:4
140
1.0
141
4.0
290
     0
  0
SCALE
  5
4B
102
{ACAD_REACTORS
330
47
102
}
330
47
100
AcDbScale
 70
     0
300
1:5
140
1.0
141
5.0
290
     0
  0
SCALE
  5
4C
102
{ACAD_REACTORS
330
47
102
}
330
47
100
AcDbScale
 70
     0
300
1:8
140
1.0
141
8.0
290
     0
  0
SCALE
  5
4D
102
{ACAD_REACTORS
330
47
102
}
330
47
100
AcDbScale
 70
     0
300
1:10
140
1.0
141
10.0
290
     0
  0
SCALE
  5
4E
102
{ACAD_REACTORS
330
47
102
}
330
47
100
AcDbScale
 70
     0
300
1:16
140
1.0
141
16.0
290
     0
  0
SCALE
  5
4F
102
{ACAD_REACTORS
330
47
102
}
330
47
100
AcDbScale
 70
     0
300
1:20
140
1.0
141
20.0
290
     0
  0
SCALE
  5
50
102
{ACAD_REACTORS
330
47
102
}
330
47
100
AcDbScale
 70
     0
300
1:30
140
1.0
141
30.0
290
     0
  0
SCALE
  5
51
102
{ACAD_REACTORS
330
47
102
}
330
47
100
AcDbScale
 70
     0
300
1:40
140
1.0
141
40.0
290
     0
  0
SCALE
  5
52
102
{ACAD_REACTORS
330
47
102
}
330
47
100
AcDbScale
 70
     0
300
1:50
140
1.0
141
50.0
290
     0
  0
SCALE
  5
53
102
{ACAD_REACTORS
330
47
102
}
330
47
100
AcDbScale
 70
     0
300
1:100
140
1.0
141
100.0
290
     0
  0
SCALE
  5
54
102
{ACAD_REACTORS
330
47
102
}
330
47
100
AcDbScale
 70
     0
300
2:1
140
2.0
141
1.0
290
     0
  0
SCALE
  5
55
102
{ACAD_REACTORS
330
47
102
}
330
47
100
AcDbScale
 70
     0
300
4:1
140
4.0
141
1.0
290
     0
  0
SCALE
  5
56
102
{ACAD_REACTORS
330
47
102
}
330
47
100
AcDbScale
 70
     0
300
8:1
140
8.0
141
1.0
290
     0
  0
SCALE
  5
57
102
{ACAD_REACTORS
330
47
102
}
330
47
100
AcDbScale
 70
     0
300
10:1
140
10.0
141
1.0
290
     0
  0
SCALE
  5
58
102
{ACAD_REACTORS
330
47
102
}
330
47
100
AcDbScale
 70
     0
300
100:1
140
100.0
141
1.0
290
     0
  0
SCALE
  5
59
102
{ACAD_REACTORS
330
47
102
}
330
47
100
AcDbScale
 70
     0
300
1/128" = 1'-0"
140
0.0078125
141
12.0
290
     0
  0
SCALE
  5
5A
102
{ACAD_REACTORS
330
47
102
}
330
47
100
AcDbScale
 70
     0
300
1/64" = 1'-0"
140
0.015625
141
12.0
290
     0
  0
SCALE
  5
5B
102
{ACAD_REACTORS
330
47
102
}
330
47
100
AcDbScale
 70
     0
300
1/32" = 1'-0"
140
0.03125
141
12.0
290
     0
  0
SCALE
  5
5C
102
{ACAD_REACTORS
330
47
102
}
330
47
100
AcDbScale
 70
     0
300
1/16" = 1'-0"
140
0.0625
141
12.0
290
     0
  0
SCALE
  5
5D
102
{ACAD_REACTORS
330
47
102
}
330
47
100
AcDbScale
 70
     0
300
3/32" = 1'-0"
140
0.09375
141
12.0
290
     0
  0
SCALE
  5
5E
102
{ACAD_REACTORS
330
47
102
}
330
47
100
AcDbScale
 70
     0
300
1/8" = 1'-0"
140
0.125
141
12.0
290
     0
  0
SCALE
  5
5F
102
{ACAD_REACTORS
330
47
102
}
330
47
100
AcDbScale
 70
     0
300
3/16" = 1'-0"
140
0.1875
141
12.0
290
     0
  0
SCALE
  5
60
102
{ACAD_REACTORS
330
47
102
}
330
47
100
AcDbScale
 70
     0
300
1/4" = 1'-0"
140
0.25
141
12.0
290
     0
  0
SCALE
  5
61
102
{ACAD_REACTORS
330
47
102
}
330
47
100
AcDbScale
 70
     0
300
3/8" = 1'-0"
140
0.375
141
12.0
290
     0
  0
SCALE
  5
62
102
{ACAD_REACTORS
330
47
102
}
330
47
100
AcDbScale
 70
     0
300
1/2" = 1'-0"
140
0.5
141
12.0
290
     0
  0
SCALE
  5
63
102
{ACAD_REACTORS
330
47
102
}
330
47
100
AcDbScale
 70
     0
300
3/4" = 1'-0"
140
0.75
141
12.0
290
     0
  0
SCALE
  5
64
102
{ACAD_REACTORS
330
47
102
}
330
47
100
AcDbScale
 70
     0
300
1" = 1'-0"
140
1.0
141
12.0
290
     0
  0
SCALE
  5
65
102
{ACAD_REACTORS
330
47
102
}
330
47
100
AcDbScale
 70
     0
300
1-1/2" = 1'-0"
140
1.5
141
12.0
290
     0
  0
SCALE
  5
66
102
{ACAD_REACTORS
330
47
102
}
330
47
100
AcDbScale
 70
     0
300
3" = 1'-0"
140
3.0
141
12.0
290
     0
  0
SCALE
  5
67
102
{ACAD_REACTORS
330
47
102
}
330
47
100
AcDbScale
 70
     0
300
6" = 1'-0"
140
6.0
141
12.0
290
     0
  0
SCALE
  5
68
102
{ACAD_REACTORS
330
47
102
}
330
47
100
AcDbScale
 70
     0
300
1'-0" = 1'-0"
140
12.0
141
12.0
290
     0
  0
ENDSEC
  0
EOF
